  0
SECTION
  2
HEADER
  9
$ACADVER
  1
AC1015
  9
$ACADMAINTVER
 70
     6
  9
$DWGCODEPAGE
  3
ANSI_932
  9
$INSBASE
 10
0.0
 20
0.0
 30
0.0
  9
$EXTMIN
 10
-1043.0
 20
-100.0
 30
0.0
  9
$EXTMAX
 10
100.0
 20
700.0
 30
0.0
  9
$LIMMIN
 10
-1043.0
 20
-100.0
  9
$LIMMAX
 10
100.0
 20
700.0
  9
$ORTHOMODE
 70
     0
  9
$REGENMODE
 70
     1
  9
$FILLMODE
 70
     1
  9
$QTEXTMODE
 70
     0
  9
$MIRRTEXT
 70
     1
  9
$LTSCALE
 40
1.0
  9
$ATTMODE
 70
     1
  9
$TEXTSIZE
 40
2.5
  9
$TRACEWID
 40
1.0
  9
$TEXTSTYLE
  7
Standard
  9
$CLAYER
  8
0
  9
$CELTYPE
  6
ByLayer
  9
$CECOLOR
 62
   256
  9
$CELTSCALE
 40
1.0
  9
$DISPSILH
 70
     0
  9
$DIMSCALE
 40
1.0
  9
$DIMASZ
 40
2.5
  9
$DIMEXO
 40
0.625
  9
$DIMDLI
 40
3.75
  9
$DIMRND
 40
0.0
  9
$DIMDLE
 40
0.0
  9
$DIMEXE
 40
1.25
  9
$DIMTP
 40
0.0
  9
$DIMTM
 40
0.0
  9
$DIMTXT
 40
2.5
  9
$DIMCEN
 40
2.5
  9
$DIMTSZ
 40
0.0
  9
$DIMTOL
 70
     0
  9
$DIMLIM
 70
     0
  9
$DIMTIH
 70
     0
  9
$DIMTOH
 70
     0
  9
$DIMSE1
 70
     0
  9
$DIMSE2
 70
     0
  9
$DIMTAD
 70
     1
  9
$DIMZIN
 70
     8
  9
$DIMBLK
  1

  9
$DIMASO
 70
     1
  9
$DIMSHO
 70
     1
  9
$DIMPOST
  1

  9
$DIMAPOST
  1

  9
$DIMALT
 70
     0
  9
$DIMALTD
 70
     3
  9
$DIMALTF
 40
0.03937007874016
  9
$DIMLFAC
 40
1.0
  9
$DIMTOFL
 70
     1
  9
$DIMTVP
 40
0.0
  9
$DIMTIX
 70
     0
  9
$DIMSOXD
 70
     0
  9
$DIMSAH
 70
     0
  9
$DIMBLK1
  1

  9
$DIMBLK2
  1

  9
$DIMSTYLE
  2
ISO-25
  9
$DIMCLRD
 70
     0
  9
$DIMCLRE
 70
     0
  9
$DIMCLRT
 70
     0
  9
$DIMTFAC
 40
1.0
  9
$DIMGAP
 40
0.625
  9
$DIMJUST
 70
     0
  9
$DIMSD1
 70
     0
  9
$DIMSD2
 70
     0
  9
$DIMTOLJ
 70
     0
  9
$DIMTZIN
 70
     8
  9
$DIMALTZ
 70
     0
  9
$DIMALTTZ
 70
     0
  9
$DIMUPT
 70
     0
  9
$DIMDEC
 70
     2
  9
$DIMTDEC
 70
     2
  9
$DIMALTU
 70
     2
  9
$DIMALTTD
 70
     3
  9
$DIMTXSTY
  7
Standard
  9
$DIMAUNIT
 70
     0
  9
$DIMADEC
 70
     0
  9
$DIMALTRND
 40
0.0
  9
$DIMAZIN
 70
     0
  9
$DIMDSEP
 70
    44
  9
$DIMATFIT
 70
     3
  9
$DIMFRAC
 70
     0
  9
$DIMLDRBLK
  1

  9
$DIMLUNIT
 70
     2
  9
$DIMLWD
 70
    -2
  9
$DIMLWE
 70
    -2
  9
$DIMTMOVE
 70
     0
  9
$LUNITS
 70
     2
  9
$LUPREC
 70
     4
  9
$SKETCHINC
 40
1.0
  9
$FILLETRAD
 40
10.0
  9
$AUNITS
 70
     0
  9
$AUPREC
 70
     0
  9
$MENU
  1
.
  9
$ELEVATION
 40
0.0
  9
$PELEVATION
 40
0.0
  9
$THICKNESS
 40
0.0
  9
$LIMCHECK
 70
     0
  9
$CHAMFERA
 40
10.0
  9
$CHAMFERB
 40
10.0
  9
$CHAMFERC
 40
20.0
  9
$CHAMFERD
 40
0.0
  9
$SKPOLY
 70
     0
  9
$TDCREATE
 40
2456528.62509279
  9
$TDUCREATE
 40
2456528.25009279
  9
$TDUPDATE
 40
2456528.625092801
  9
$TDUUPDATE
 40
2456528.250092801
  9
$TDINDWG
 40
0.0000000116
  9
$TDUSRTIMER
 40
0.0000000116
  9
$USRTIMER
 70
     1
  9
$ANGBASE
 50
0.0
  9
$ANGDIR
 70
     0
  9
$PDMODE
 70
     0
  9
$PDSIZE
 40
0.0
  9
$PLINEWID
 40
0.0
  9
$SPLFRAME
 70
     0
  9
$SPLINETYPE
 70
     6
  9
$SPLINESEGS
 70
     8
  9
$HANDSEED
  5
2D8
  9
$SURFTAB1
 70
     6
  9
$SURFTAB2
 70
     6
  9
$SURFTYPE
 70
     6
  9
$SURFU
 70
     6
  9
$SURFV
 70
     6
  9
$UCSBASE
  2

  9
$UCSNAME
  2

  9
$UCSORG
 10
0.0
 20
0.0
 30
0.0
  9
$UCSXDIR
 10
1.0
 20
0.0
 30
0.0
  9
$UCSYDIR
 10
0.0
 20
1.0
 30
0.0
  9
$UCSORTHOREF
  2

  9
$UCSORTHOVIEW
 70
     0
  9
$UCSORGTOP
 10
0.0
 20
0.0
 30
0.0
  9
$UCSORGBOTTOM
 10
0.0
 20
0.0
 30
0.0
  9
$UCSORGLEFT
 10
0.0
 20
0.0
 30
0.0
  9
$UCSORGRIGHT
 10
0.0
 20
0.0
 30
0.0
  9
$UCSORGFRONT
 10
0.0
 20
0.0
 30
0.0
  9
$UCSORGBACK
 10
0.0
 20
0.0
 30
0.0
  9
$PUCSBASE
  2

  9
$PUCSNAME
  2

  9
$PUCSORG
 10
0.0
 20
0.0
 30
0.0
  9
$PUCSXDIR
 10
1.0
 20
0.0
 30
0.0
  9
$PUCSYDIR
 10
0.0
 20
1.0
 30
0.0
  9
$PUCSORTHOREF
  2

  9
$PUCSORTHOVIEW
 70
     0
  9
$PUCSORGTOP
 10
0.0
 20
0.0
 30
0.0
  9
$PUCSORGBOTTOM
 10
0.0
 20
0.0
 30
0.0
  9
$PUCSORGLEFT
 10
0.0
 20
0.0
 30
0.0
  9
$PUCSORGRIGHT
 10
0.0
 20
0.0
 30
0.0
  9
$PUCSORGFRONT
 10
0.0
 20
0.0
 30
0.0
  9
$PUCSORGBACK
 10
0.0
 20
0.0
 30
0.0
  9
$USERI1
 70
     0
  9
$USERI2
 70
     0
  9
$USERI3
 70
     0
  9
$USERI4
 70
     0
  9
$USERI5
 70
     0
  9
$USERR1
 40
0.0
  9
$USERR2
 40
0.0
  9
$USERR3
 40
0.0
  9
$USERR4
 40
0.0
  9
$USERR5
 40
0.0
  9
$WORLDVIEW
 70
     1
  9
$SHADEDGE
 70
     3
  9
$SHADEDIF
 70
    70
  9
$TILEMODE
 70
     1
  9
$MAXACTVP
 70
    64
  9
$PINSBASE
 10
0.0
 20
0.0
 30
0.0
  9
$PLIMCHECK
 70
     0
  9
$PEXTMIN
 10
1.000000000000000E+20
 20
1.000000000000000E+20
 30
1.000000000000000E+20
  9
$PEXTMAX
 10
-1.000000000000000E+20
 20
-1.000000000000000E+20
 30
-1.000000000000000E+20
  9
$PLIMMIN
 10
-1043.0
 20
-100.0
  9
$PLIMMAX
 10
100.0
 20
700.0
  9
$UNITMODE
 70
     0
  9
$VISRETAIN
 70
     1
  9
$PLINEGEN
 70
     0
  9
$PSLTSCALE
 70
     1
  9
$TREEDEPTH
 70
  3020
  9
$CMLSTYLE
  2
Standard
  9
$CMLJUST
 70
     0
  9
$CMLSCALE
 40
20.0
  9
$PROXYGRAPHICS
 70
     1
  9
$MEASUREMENT
 70
     1
  9
$CELWEIGHT
370
    -1
  9
$ENDCAPS
280
     0
  9
$JOINSTYLE
280
     0
  9
$LWDISPLAY
290
     0
  9
$INSUNITS
 70
     4
  9
$HYPERLINKBASE
  1

  9
$STYLESHEET
  1

  9
$XEDIT
290
     1
  9
$CEPSNTYPE
380
     0
  9
$PSTYLEMODE
290
     1
  9
$FINGERPRINTGUID
  2
{AE8FD7BA-1395-4336-8F0B-C4E006A8C585}
  9
$VERSIONGUID
  2
{FAEB1C32-E019-11D5-929B-00C0DF256EC4}
  9
$EXTNAMES
290
     1
  9
$PSVPSCALE
 40
0.0
  9
$OLESTARTUP
290
     0
  0
ENDSEC
  0
SECTION
  2
CLASSES
  0
CLASS
  1
ACDBDICTIONARYWDFLT
  2
AcDbDictionaryWithDefault
  3
ObjectDBX Classes
 90
        0
280
     0
281
     0
  0
CLASS
  1
VISUALSTYLE
  2
AcDbVisualStyle
  3
ObjectDBX Classes
 90
     4095
280
     0
281
     0
  0
CLASS
  1
SCALE
  2
AcDbScale
  3
ObjectDBX Classes
 90
     1153
280
     0
281
     0
  0
CLASS
  1
DICTIONARYVAR
  2
AcDbDictionaryVar
  3
ObjectDBX Classes
 90
        0
280
     0
281
     0
  0
CLASS
  1
ACDBPLACEHOLDER
  2
AcDbPlaceHolder
  3
ObjectDBX Classes
 90
        0
280
     0
281
     0
  0
CLASS
  1
LAYOUT
  2
AcDbLayout
  3
ObjectDBX Classes
 90
        0
280
     0
281
     0
  0
ENDSEC
  0
SECTION
  2
TABLES
  0
TABLE
  2
VPORT
  5
8
330
0
100
AcDbSymbolTable
 70
     1
  0
VPORT
  5
29
330
8
100
AcDbSymbolTableRecord
100
AcDbViewportTableRecord
  2
*Active
 70
     0
 10
0.0
 20
0.0
 11
1.0
 21
1.0
 12
344.1869158878504
 22
148.5
 13
0.0
 23
0.0
 14
10.0
 24
10.0
 15
10.0
 25
10.0
 16
0.0
 26
0.0
 36
1.0
 17
0.0
 27
0.0
 37
0.0
 40
297.0
 41
1.972972972850329
 42
50.0
 43
0.0
 44
0.0
 50
0.0
 51
0.0
 71
     0
 72
   100
 73
     1
 74
     3
 75
     0
 76
     0
 77
     0
 78
     0
281
     0
 65
     1
110
0.0
120
0.0
130
0.0
111
1.0
121
0.0
131
0.0
112
0.0
122
1.0
132
0.0
 79
     0
146
0.0
  0
ENDTAB
  0
TABLE
  2
LTYPE
  5
5
330
0
100
AcDbSymbolTable
 70
     5
  0
LTYPE
  5
14
330
5
100
AcDbSymbolTableRecord
100
AcDbLinetypeTableRecord
  2
ByBlock
 70
     0
  3

 72
    65
 73
     0
 40
0.0
  0
LTYPE
  5
15
330
5
100
AcDbSymbolTableRecord
100
AcDbLinetypeTableRecord
  2
ByLayer
 70
     0
  3

 72
    65
 73
     0
 40
0.0
  0
LTYPE
  5
16
330
5
100
AcDbSymbolTableRecord
100
AcDbLinetypeTableRecord
  2
Continuous
 70
     0
  3
Solid line
 72
    65
 73
     0
 40
0.0
  0
LTYPE
  5
3B
330
5
100
AcDbSymbolTableRecord
100
AcDbLinetypeTableRecord
  2
CONTINOUS
 70
     0
  3
______________________________
 72
    65
 73
     0
 40
0.0
  0
LTYPE
  5
3C
330
5
100
AcDbSymbolTableRecord
100
AcDbLinetypeTableRecord
  2
DASHED
 70
     0
  3
__ __ __ __ __ __ __ __ __ __ __ __ __ __ __ __
 72
    65
 73
     2
 40
4.5
 49
3.0
 74
     0
 49
-1.5
 74
     0
  0
LTYPE
  5
3D
330
5
100
AcDbSymbolTableRecord
100
AcDbLinetypeTableRecord
  2
PHANTOM
 70
     0
  3
______  __  __  ______  __  __  _____
 72
    65
 73
     6
 40
15.0
 49
7.5
 74
     0
 49
-1.5
 74
     0
 49
1.5
 74
     0
 49
-1.5
 74
     0
 49
1.5
 74
     0
 49
-1.5
 74
     0
  0
LTYPE
  5
3E
330
5
100
AcDbSymbolTableRecord
100
AcDbLinetypeTableRecord
  2
CENTER
 70
     0
  3
____ _ ____ _ ____ _ ____ _ ____ _ ____
 72
    65
 73
     4
 40
12.0
 49
7.5
 74
     0
 49
-1.5
 74
     0
 49
1.5
 74
     0
 49
-1.5
 74
     0
  0
ENDTAB
  0
TABLE
  2
LAYER
  5
2
330
0
100
AcDbSymbolTable
 70
     1
  0
LAYER
  5
10
330
2
100
AcDbSymbolTableRecord
100
AcDbLayerTableRecord
  2
0
 70
     0
 62
     7
  6
Continuous
370
    -3
390
F
  0
ENDTAB
  0
TABLE
  2
STYLE
  5
3
330
0
100
AcDbSymbolTable
 70
     1
  0
STYLE
  5
11
330
3
100
AcDbSymbolTableRecord
100
AcDbTextStyleTableRecord
  2
Standard
 70
     0
 40
0.0
 41
1.0
 50
0.0
 71
     0
 42
2.5
  3
ROMANS
  4
EXTFONT
  0
ENDTAB
  0
TABLE
  2
VIEW
  5
6
330
0
100
AcDbSymbolTable
 70
     0
  0
ENDTAB
  0
TABLE
  2
UCS
  5
7
330
0
100
AcDbSymbolTable
 70
     0
  0
ENDTAB
  0
TABLE
  2
APPID
  5
9
330
0
100
AcDbSymbolTable
 70
     1
  0
APPID
  5
12
330
9
100
AcDbSymbolTableRecord
100
AcDbRegAppTableRecord
  2
ACAD
 70
     0
  0
ENDTAB
  0
TABLE
  2
DIMSTYLE
  5
A
330
0
100
AcDbSymbolTable
 70
     1
100
AcDbDimStyleTable
  0
DIMSTYLE
105
27
330
A
100
AcDbSymbolTableRecord
100
AcDbDimStyleTableRecord
  2
ISO-25
 70
     0
 41
2.5
 42
0.625
 43
3.75
 44
1.25
 73
     0
 74
     0
 77
     1
 78
     8
140
2.5
141
2.5
143
0.03937007874016
147
0.625
171
     3
172
     1
271
     2
272
     2
274
     3
278
    44
283
     0
284
     8
340
11
  0
ENDTAB
  0
TABLE
  2
BLOCK_RECORD
  5
1
330
0
100
AcDbSymbolTable
 70
     3
  0
BLOCK_RECORD
  5
1F
330
1
100
AcDbSymbolTableRecord
100
AcDbBlockTableRecord
  2
*Model_Space
340
22
  0
BLOCK_RECORD
  5
1B
330
1
100
AcDbSymbolTableRecord
100
AcDbBlockTableRecord
  2
*Paper_Space
340
1E
  0
BLOCK_RECORD
  5
23
330
1
100
AcDbSymbolTableRecord
100
AcDbBlockTableRecord
  2
*Paper_Space0
340
26
  0
BLOCK_RECORD
  5
3F
330
1
100
AcDbSymbolTableRecord
100
AcDbBlockTableRecord
  2
USER0001
340
0
102
{BLKREFS
331
1C6
102
}
  0
BLOCK_RECORD
  5
42
330
1
100
AcDbSymbolTableRecord
100
AcDbBlockTableRecord
  2
DTL0001
340
0
  0
ENDTAB
  0
ENDSEC
  0
SECTION
  2
BLOCKS
  0
BLOCK
  5
20
330
1F
100
AcDbEntity
  8
0
100
AcDbBlockBegin
  2
*Model_Space
 70
     0
 10
0.0
 20
0.0
 30
0.0
  3
*Model_Space
  1

  0
ENDBLK
  5
21
330
1F
100
AcDbEntity
  8
0
100
AcDbBlockEnd
  0
BLOCK
  5
1C
330
1B
100
AcDbEntity
 67
     1
  8
0
100
AcDbBlockBegin
  2
*Paper_Space
 70
     0
 10
0.0
 20
0.0
 30
0.0
  3
*Paper_Space
  1

  0
ENDBLK
  5
1D
330
1B
100
AcDbEntity
 67
     1
  8
0
100
AcDbBlockEnd
  0
BLOCK
  5
24
330
23
100
AcDbEntity
  8
0
100
AcDbBlockBegin
  2
*Paper_Space0
 70
     0
 10
0.0
 20
0.0
 30
0.0
  3
*Paper_Space0
  1

  0
ENDBLK
  5
25
330
23
100
AcDbEntity
  8
0
100
AcDbBlockEnd
  0
BLOCK
  5
40
330
3F
100
AcDbEntity
  8
0
100
AcDbBlockBegin
  2
USER0001
 70
     0
 10
0.0
 20
0.0
 30
0.0
  3
USER0001
  1

  0
POINT
  5
45
330
3F
100
AcDbEntity
  8
0
 62
     0
100
AcDbPoint
 10
-6.500002861022949
 20
780.5
 30
0.0
  0
POINT
  5
46
330
3F
100
AcDbEntity
  8
0
 62
     0
100
AcDbPoint
 10
-6.500002861022949
 20
785.5
 30
0.0
  0
POINT
  5
47
330
3F
100
AcDbEntity
  8
0
 62
     0
100
AcDbPoint
 10
-127.0
 20
2.5
 30
0.0
  0
POINT
  5
48
330
3F
100
AcDbEntity
  8
0
 62
     0
100
AcDbPoint
 10
-1132.0
 20
776.0
 30
0.0
  0
POINT
  5
49
330
3F
100
AcDbEntity
  8
0
 62
     0
100
AcDbPoint
 10
-1132.0
 20
782.0
 30
0.0
  0
POINT
  5
4A
330
3F
100
AcDbEntity
  8
0
 62
     0
100
AcDbPoint
 10
-1132.0
 20
24.0
 30
0.0
  0
POINT
  5
4B
330
3F
100
AcDbEntity
  8
0
 62
     0
100
AcDbPoint
 10
-1132.0
 20
30.0
 30
0.0
  0
POINT
  5
4C
330
3F
100
AcDbEntity
  8
0
 62
     0
100
AcDbPoint
 10
-571.5
 20
400.0
 30
0.0
  0
POINT
  5
4D
330
3F
100
AcDbEntity
  8
0
 62
     0
100
AcDbPoint
 10
-1132.0
 20
794.0
 30
0.0
  0
POINT
  5
4E
330
3F
100
AcDbEntity
  8
0
 62
     0
100
AcDbPoint
 10
-1132.0
 20
12.0
 30
0.0
  0
POINT
  5
4F
330
3F
100
AcDbEntity
  8
0
 62
     0
100
AcDbPoint
 10
-1132.0
 20
6.0
 30
0.0
  0
POINT
  5
50
330
3F
100
AcDbEntity
  8
0
 62
     0
100
AcDbPoint
 10
-6.500002861022949
 20
790.5
 30
0.0
  0
POINT
  5
51
330
3F
100
AcDbEntity
  8
0
 62
     0
100
AcDbPoint
 10
-82.44999694824219
 20
3.75
 30
0.0
  0
POINT
  5
52
330
3F
100
AcDbEntity
  8
0
 62
     0
100
AcDbPoint
 10
-172.5
 20
40.0
 30
0.0
  0
POINT
  5
53
330
3F
100
AcDbEntity
  8
0
 62
     0
100
AcDbPoint
 10
-75.69999694824219
 20
28.75
 30
0.0
  0
POINT
  5
54
330
3F
100
AcDbEntity
  8
0
 62
     0
100
AcDbPoint
 10
-81.4000015258789
 20
16.25
 30
0.0
  0
POINT
  5
55
330
3F
100
AcDbEntity
  8
0
 62
     0
100
AcDbPoint
 10
-172.5
 20
17.5
 30
0.0
  0
POINT
  5
56
330
3F
100
AcDbEntity
  8
0
 62
     0
100
AcDbPoint
 10
-3.799999952316284
 20
30.0
 30
0.0
  0
POINT
  5
57
330
3F
100
AcDbEntity
  8
0
 62
     0
100
AcDbPoint
 10
-12.19999980926514
 20
30.0
 30
0.0
  0
POINT
  5
58
330
3F
100
AcDbEntity
  8
0
 62
     0
100
AcDbPoint
 10
-172.5
 20
32.5
 30
0.0
  0
POINT
  5
59
330
3F
100
AcDbEntity
  8
0
 62
     0
100
AcDbPoint
 10
-58.20000076293945
 20
30.0
 30
0.0
  0
POINT
  5
5A
330
3F
100
AcDbEntity
  8
0
 62
     0
100
AcDbPoint
 10
-172.5
 20
25.0
 30
0.0
  0
POINT
  5
5B
330
3F
100
AcDbEntity
  8
0
 62
     0
100
AcDbPoint
 10
-172.5
 20
47.5
 30
0.0
  0
POINT
  5
5C
330
3F
100
AcDbEntity
  8
0
 62
     0
100
AcDbPoint
 10
-1153.0
 20
780.0
 30
0.0
  0
POINT
  5
5D
330
3F
100
AcDbEntity
  8
0
 62
     0
100
AcDbPoint
 10
-1153.0
 20
790.0
 30
0.0
  0
POINT
  5
5E
330
3F
100
AcDbEntity
  8
0
 62
     0
100
AcDbPoint
 10
-76.77500915527344
 20
-12.375
 30
0.0
  0
POINT
  5
5F
330
3F
100
AcDbEntity
  8
0
 62
     0
100
AcDbPoint
 10
3.149978637695312
 20
24.5
 30
0.0
  0
POINT
  5
60
330
3F
100
AcDbEntity
  8
0
 62
     0
100
AcDbPoint
 10
-1132.0
 20
788.0
 30
0.0
  0
POINT
  5
61
330
3F
100
AcDbEntity
  8
0
 62
     0
100
AcDbPoint
 10
-1132.0
 20
18.0
 30
0.0
  0
POINT
  5
62
330
3F
100
AcDbEntity
  8
0
 62
     0
100
AcDbPoint
 10
-1132.0
 20
770.0
 30
0.0
  0
POINT
  5
63
330
3F
100
AcDbEntity
  8
0
 62
     0
100
AcDbPoint
 10
-127.0
 20
10.0
 30
0.0
  0
POINT
  5
64
330
3F
100
AcDbEntity
  8
0
 62
     0
100
AcDbPoint
 10
-172.5
 20
2.5
 30
0.0
  0
POINT
  5
65
330
3F
100
AcDbEntity
  8
0
 62
     0
100
AcDbPoint
 10
-81.30000305175781
 20
40.0
 30
0.0
  0
POINT
  5
66
330
3F
100
AcDbEntity
  8
0
 62
     0
100
AcDbPoint
 10
-81.30000305175781
 20
46.25
 30
0.0
  0
POINT
  5
67
330
3F
100
AcDbEntity
  8
0
 62
     0
100
AcDbPoint
 10
-76.19998168945312
 20
780.5
 30
0.0
  0
POINT
  5
68
330
3F
100
AcDbEntity
  8
0
 62
     0
100
AcDbPoint
 10
-76.19998168945312
 20
785.5
 30
0.0
  0
POINT
  5
69
330
3F
100
AcDbEntity
  8
0
 62
     0
100
AcDbPoint
 10
-76.19998168945312
 20
790.5
 30
0.0
  0
POINT
  5
6A
330
3F
100
AcDbEntity
  8
0
 62
     0
100
AcDbPoint
 10
-69.6999740600586
 20
780.5
 30
0.0
  0
POINT
  5
6B
330
3F
100
AcDbEntity
  8
0
 62
     0
100
AcDbPoint
 10
-69.6999740600586
 20
785.5
 30
0.0
  0
POINT
  5
6C
330
3F
100
AcDbEntity
  8
0
 62
     0
100
AcDbPoint
 10
-69.6999740600586
 20
790.5
 30
0.0
  0
POINT
  5
6D
330
3F
100
AcDbEntity
  8
0
 62
     0
100
AcDbPoint
 10
-24.79999732971191
 20
780.5
 30
0.0
  0
POINT
  5
6E
330
3F
100
AcDbEntity
  8
0
 62
     0
100
AcDbPoint
 10
-24.79999732971191
 20
785.5
 30
0.0
  0
POINT
  5
6F
330
3F
100
AcDbEntity
  8
0
 62
     0
100
AcDbPoint
 10
-47.29998397827148
 20
780.5
 30
0.0
  0
POINT
  5
70
330
3F
100
AcDbEntity
  8
0
 62
     0
100
AcDbPoint
 10
-47.29998397827148
 20
785.5
 30
0.0
  0
POINT
  5
71
330
3F
100
AcDbEntity
  8
0
 62
     0
100
AcDbPoint
 10
-24.79999732971191
 20
790.5
 30
0.0
  0
POINT
  5
72
330
3F
100
AcDbEntity
  8
0
 62
     0
100
AcDbPoint
 10
-47.29998397827148
 20
790.5
 30
0.0
  0
POINT
  5
73
330
3F
100
AcDbEntity
  8
0
 62
     0
100
AcDbPoint
 10
0.0
 20
0.0
 30
0.0
  0
POINT
  5
74
330
3F
100
AcDbEntity
  8
0
 62
     0
100
AcDbPoint
 10
-98.0
 20
17.5
 30
0.0
  0
POINT
  5
75
330
3F
100
AcDbEntity
  8
0
 62
     0
100
AcDbPoint
 10
-88.0
 20
17.5
 30
0.0
  0
POINT
  5
76
330
3F
100
AcDbEntity
  8
0
 62
     0
100
AcDbPoint
 10
-76.7750015258789
 20
-12.375
 30
0.0
  0
LINE
  5
77
330
3F
100
AcDbEntity
  8
0
  6
Continuous
 62
     0
370
    50
100
AcDbLine
 10
-175.0
 20
15.0
 30
0.0
 11
-84.0
 21
15.0
 31
0.0
  0
LINE
  5
78
330
3F
100
AcDbEntity
  8
0
  6
Continuous
 62
     0
370
    50
100
AcDbLine
 10
-91.04088084652999
 20
32.75622898817198
 30
0.0
 11
-87.04089538667682
 21
31.9562320907128
 31
0.0
  0
LINE
  5
79
330
3F
100
AcDbEntity
  8
0
  6
Continuous
 62
     0
370
    50
100
AcDbLine
 10
-291.0
 20
805.0
 30
0.0
 11
-291.0
 21
800.0
 31
0.0
  0
LINE
  5
7A
330
3F
100
AcDbEntity
  8
0
  6
Continuous
 62
     0
370
    50
100
AcDbLine
 10
-91.04080940481359
 20
35.15618255872927
 30
0.0
 11
-87.04088379485574
 21
35.9561674862123
 31
0.0
  0
LINE
  5
7B
330
3F
100
AcDbEntity
  8
0
  6
Continuous
 62
     0
370
    50
100
AcDbLine
 10
-87.04071044921875
 20
35.95587921142578
 30
0.0
 11
-87.04071044921875
 21
31.95587921142578
 31
0.0
  0
LINE
  5
7C
330
3F
100
AcDbEntity
  8
0
  6
Continuous
 62
     0
370
    50
100
AcDbLine
 10
-91.04069519042969
 20
35.1558837890625
 30
0.0
 11
-91.04069519042969
 21
32.75588226318359
 31
0.0
  0
LINE
  5
7D
330
3F
100
AcDbEntity
  8
0
  6
CENTER
 62
     0
370
    30
100
AcDbLine
 10
-99.35237884521484
 20
33.95587921142578
 30
0.0
 11
-86.54127502441406
 21
33.95587921142578
 31
0.0
  0
LINE
  5
7E
330
3F
100
AcDbEntity
  8
0
  6
CENTER
 62
     0
370
    30
100
AcDbLine
 10
-96.64067077636719
 20
36.48541259765625
 30
0.0
 11
-96.64067077636719
 21
31.38953399658203
 31
0.0
  0
LINE
  5
7F
330
3F
100
AcDbEntity
  8
0
  6
Continuous
 62
     0
370
    70
100
AcDbLine
 10
-84.0
 20
52.5
 30
0.0
 11
-84.0
 21
0.0
 31
0.0
  0
LINE
  5
80
330
3F
100
AcDbEntity
  8
0
  6
Continuous
 62
     0
370
    50
100
AcDbLine
 10
-175.0
 20
30.0
 30
0.0
 11
-84.0
 21
30.0
 31
0.0
  0
LINE
  5
81
330
3F
100
AcDbEntity
  8
0
  6
Continuous
 62
     0
370
    50
100
AcDbLine
 10
-175.0
 20
37.5
 30
0.0
 11
-84.0
 21
37.5
 31
0.0
  0
LINE
  5
82
330
3F
100
AcDbEntity
  8
0
  6
Continuous
 62
     0
370
    30
100
AcDbLine
 10
-175.0
 20
50.0
 30
0.0
 11
0.0
 21
50.0
 31
0.0
  0
LINE
  5
83
330
3F
100
AcDbEntity
  8
0
  6
Continuous
 62
     0
370
    30
100
AcDbLine
 10
-175.0
 20
35.0
 30
0.0
 11
-102.0
 21
35.0
 31
0.0
  0
LINE
  5
84
330
3F
100
AcDbEntity
  8
0
  6
Continuous
 62
     0
370
    50
100
AcDbLine
 10
-1148.0
 20
66.75
 30
0.0
 11
-1143.0
 21
66.75
 31
0.0
  0
LINE
  5
85
330
3F
100
AcDbEntity
  8
0
  6
Continuous
 62
     0
370
    50
100
AcDbLine
 10
-1148.0
 20
133.5
 30
0.0
 11
-1143.0
 21
133.5
 31
0.0
  0
LINE
  5
86
330
3F
100
AcDbEntity
  8
0
  6
Continuous
 62
     0
370
    50
100
AcDbLine
 10
-1148.0
 20
200.25
 30
0.0
 11
-1143.0
 21
200.25
 31
0.0
  0
LINE
  5
87
330
3F
100
AcDbEntity
  8
0
  6
Continuous
 62
     0
370
    50
100
AcDbLine
 10
-1148.0
 20
267.0
 30
0.0
 11
-1143.0
 21
267.0
 31
0.0
  0
LINE
  5
88
330
3F
100
AcDbEntity
  8
0
  6
Continuous
 62
     0
370
    50
100
AcDbLine
 10
-1148.0
 20
333.75
 30
0.0
 11
-1143.0
 21
333.75
 31
0.0
  0
LINE
  5
89
330
3F
100
AcDbEntity
  8
0
  6
Continuous
 62
     0
370
    50
100
AcDbLine
 10
-1148.0
 20
467.25
 30
0.0
 11
-1143.0
 21
467.25
 31
0.0
  0
LINE
  5
8A
330
3F
100
AcDbEntity
  8
0
  6
Continuous
 62
     0
370
    50
100
AcDbLine
 10
-1148.0
 20
534.0
 30
0.0
 11
-1143.0
 21
534.0
 31
0.0
  0
LINE
  5
8B
330
3F
100
AcDbEntity
  8
0
  6
Continuous
 62
     0
370
    50
100
AcDbLine
 10
-1148.0
 20
600.75
 30
0.0
 11
-1143.0
 21
600.75
 31
0.0
  0
LINE
  5
8C
330
3F
100
AcDbEntity
  8
0
  6
Continuous
 62
     0
370
    50
100
AcDbLine
 10
-1148.0
 20
667.5
 30
0.0
 11
-1143.0
 21
667.5
 31
0.0
  0
LINE
  5
8D
330
3F
100
AcDbEntity
  8
0
  6
Continuous
 62
     0
370
    50
100
AcDbLine
 10
-1148.0
 20
734.25
 30
0.0
 11
-1143.0
 21
734.25
 31
0.0
  0
LINE
  5
8E
330
3F
100
AcDbEntity
  8
0
  6
Continuous
 62
     0
370
    50
100
AcDbLine
 10
-1148.0
 20
400.5
 30
0.0
 11
-1146.462890625
 21
400.5
 31
0.0
  0
LINE
  5
8F
330
3F
100
AcDbEntity
  8
0
  6
Continuous
 62
     0
370
    30
100
AcDbLine
 10
-1148.0
 20
805.0
 30
0.0
 11
-1148.0
 21
-5.0
 31
0.0
  0
LINE
  5
90
330
3F
100
AcDbEntity
  8
0
  6
Continuous
 62
     0
370
    50
100
AcDbLine
 10
-1077.5
 20
805.0
 30
0.0
 11
-1077.5
 21
800.0
 31
0.0
  0
LINE
  5
91
330
3F
100
AcDbEntity
  8
0
  6
Continuous
 62
     0
370
    50
100
AcDbLine
 10
-1006.0
 20
805.0
 30
0.0
 11
-1006.0
 21
800.0
 31
0.0
  0
LINE
  5
92
330
3F
100
AcDbEntity
  8
0
  6
Continuous
 62
     0
370
    50
100
AcDbLine
 10
-934.5
 20
805.0
 30
0.0
 11
-934.5
 21
800.0
 31
0.0
  0
LINE
  5
93
330
3F
100
AcDbEntity
  8
0
  6
Continuous
 62
     0
370
    50
100
AcDbLine
 10
-863.0
 20
805.0
 30
0.0
 11
-863.0
 21
800.0
 31
0.0
  0
LINE
  5
94
330
3F
100
AcDbEntity
  8
0
  6
Continuous
 62
     0
370
    50
100
AcDbLine
 10
-791.5
 20
805.0
 30
0.0
 11
-791.5
 21
800.0
 31
0.0
  0
LINE
  5
95
330
3F
100
AcDbEntity
  8
0
  6
Continuous
 62
     0
370
    50
100
AcDbLine
 10
-362.5
 20
805.0
 30
0.0
 11
-362.5
 21
800.0
 31
0.0
  0
LINE
  5
96
330
3F
100
AcDbEntity
  8
0
  6
Continuous
 62
     0
370
    50
100
AcDbLine
 10
-434.0
 20
805.0
 30
0.0
 11
-434.0
 21
800.0
 31
0.0
  0
LINE
  5
97
330
3F
100
AcDbEntity
  8
0
  6
Continuous
 62
     0
370
    50
100
AcDbLine
 10
-505.5
 20
805.0
 30
0.0
 11
-505.5
 21
800.0
 31
0.0
  0
LINE
  5
98
330
3F
100
AcDbEntity
  8
0
  6
Continuous
 62
     0
370
    50
100
AcDbLine
 10
-577.0
 20
805.0
 30
0.0
 11
-577.0
 21
800.0
 31
0.0
  0
LINE
  5
99
330
3F
100
AcDbEntity
  8
0
  6
Continuous
 62
     0
370
    50
100
AcDbLine
 10
-648.5
 20
805.0
 30
0.0
 11
-648.5
 21
800.0
 31
0.0
  0
LINE
  5
9A
330
3F
100
AcDbEntity
  8
0
  6
Continuous
 62
     0
370
    50
100
AcDbLine
 10
-720.0
 20
805.0
 30
0.0
 11
-720.0
 21
800.0
 31
0.0
  0
LINE
  5
9B
330
3F
100
AcDbEntity
  8
0
  6
Continuous
 62
     0
370
    50
100
AcDbLine
 10
-219.5
 20
805.0
 30
0.0
 11
-219.5
 21
800.0
 31
0.0
  0
LINE
  5
9C
330
3F
100
AcDbEntity
  8
0
  6
Continuous
 62
     0
370
    50
100
AcDbLine
 10
-148.0
 20
805.0
 30
0.0
 11
-148.0
 21
800.0
 31
0.0
  0
LINE
  5
9D
330
3F
100
AcDbEntity
  8
0
  6
Continuous
 62
     0
370
    50
100
AcDbLine
 10
-76.5
 20
805.0
 30
0.0
 11
-76.5
 21
800.0
 31
0.0
  0
LINE
  5
9E
330
3F
100
AcDbEntity
  8
0
  6
Continuous
 62
     0
370
    30
100
AcDbLine
 10
-1148.0
 20
805.0
 30
0.0
 11
5.0
 21
805.0
 31
0.0
  0
LINE
  5
9F
330
3F
100
AcDbEntity
  8
0
  6
Continuous
 62
     0
370
    50
100
AcDbLine
 10
-1072.5
 20
0.0
 30
0.0
 11
-1072.5
 21
-5.0
 31
0.0
  0
LINE
  5
A0
330
3F
100
AcDbEntity
  8
0
  6
Continuous
 62
     0
370
    50
100
AcDbLine
 10
-1001.0
 20
0.0
 30
0.0
 11
-1001.0
 21
-5.0
 31
0.0
  0
LINE
  5
A1
330
3F
100
AcDbEntity
  8
0
  6
Continuous
 62
     0
370
    50
100
AcDbLine
 10
-929.5
 20
0.0
 30
0.0
 11
-929.5
 21
-5.0
 31
0.0
  0
LINE
  5
A2
330
3F
100
AcDbEntity
  8
0
  6
Continuous
 62
     0
370
    50
100
AcDbLine
 10
-858.0
 20
0.0
 30
0.0
 11
-858.0
 21
-5.0
 31
0.0
  0
LINE
  5
A3
330
3F
100
AcDbEntity
  8
0
  6
Continuous
 62
     0
370
    50
100
AcDbLine
 10
-786.5
 20
0.0
 30
0.0
 11
-786.5
 21
-5.0
 31
0.0
  0
LINE
  5
A4
330
3F
100
AcDbEntity
  8
0
  6
Continuous
 62
     0
370
    50
100
AcDbLine
 10
-715.0
 20
0.0
 30
0.0
 11
-715.0
 21
-5.0
 31
0.0
  0
LINE
  5
A5
330
3F
100
AcDbEntity
  8
0
  6
Continuous
 62
     0
370
    50
100
AcDbLine
 10
-643.5
 20
0.0
 30
0.0
 11
-643.5
 21
-5.0
 31
0.0
  0
LINE
  5
A6
330
3F
100
AcDbEntity
  8
0
  6
Continuous
 62
     0
370
    50
100
AcDbLine
 10
-572.0
 20
0.0
 30
0.0
 11
-572.0
 21
-5.0
 31
0.0
  0
LINE
  5
A7
330
3F
100
AcDbEntity
  8
0
  6
Continuous
 62
     0
370
    50
100
AcDbLine
 10
-500.5
 20
0.0
 30
0.0
 11
-500.5
 21
-5.0
 31
0.0
  0
LINE
  5
A8
330
3F
100
AcDbEntity
  8
0
  6
Continuous
 62
     0
370
    50
100
AcDbLine
 10
-429.0
 20
0.0
 30
0.0
 11
-429.0
 21
-5.0
 31
0.0
  0
LINE
  5
A9
330
3F
100
AcDbEntity
  8
0
  6
Continuous
 62
     0
370
    50
100
AcDbLine
 10
-357.5
 20
0.0
 30
0.0
 11
-357.5
 21
-5.0
 31
0.0
  0
LINE
  5
AA
330
3F
100
AcDbEntity
  8
0
  6
Continuous
 62
     0
370
    50
100
AcDbLine
 10
-286.0
 20
0.0
 30
0.0
 11
-286.0
 21
-5.0
 31
0.0
  0
LINE
  5
AB
330
3F
100
AcDbEntity
  8
0
  6
Continuous
 62
     0
370
    50
100
AcDbLine
 10
-214.5
 20
0.0
 30
0.0
 11
-214.5
 21
-5.0
 31
0.0
  0
LINE
  5
AC
330
3F
100
AcDbEntity
  8
0
  6
Continuous
 62
     0
370
    50
100
AcDbLine
 10
-143.0
 20
0.0
 30
0.0
 11
-143.0
 21
-5.0
 31
0.0
  0
LINE
  5
AD
330
3F
100
AcDbEntity
  8
0
  6
Continuous
 62
     0
370
    50
100
AcDbLine
 10
-71.5
 20
0.0
 30
0.0
 11
-71.5
 21
-5.0
 31
0.0
  0
LINE
  5
AE
330
3F
100
AcDbEntity
  8
0
  6
Continuous
 62
     0
370
    50
100
AcDbLine
 10
0.0
 20
66.75
 30
0.0
 11
5.0
 21
66.75
 31
0.0
  0
LINE
  5
AF
330
3F
100
AcDbEntity
  8
0
  6
Continuous
 62
     0
370
    50
100
AcDbLine
 10
0.0
 20
133.5
 30
0.0
 11
5.0
 21
133.5
 31
0.0
  0
LINE
  5
B0
330
3F
100
AcDbEntity
  8
0
  6
Continuous
 62
     0
370
    50
100
AcDbLine
 10
0.0
 20
200.25
 30
0.0
 11
5.0
 21
200.25
 31
0.0
  0
LINE
  5
B1
330
3F
100
AcDbEntity
  8
0
  6
Continuous
 62
     0
370
    50
100
AcDbLine
 10
0.0
 20
267.0
 30
0.0
 11
5.0
 21
267.0
 31
0.0
  0
LINE
  5
B2
330
3F
100
AcDbEntity
  8
0
  6
Continuous
 62
     0
370
    50
100
AcDbLine
 10
0.0
 20
333.75
 30
0.0
 11
5.0
 21
333.75
 31
0.0
  0
LINE
  5
B3
330
3F
100
AcDbEntity
  8
0
  6
Continuous
 62
     0
370
    50
100
AcDbLine
 10
0.0
 20
467.25
 30
0.0
 11
5.0
 21
467.25
 31
0.0
  0
LINE
  5
B4
330
3F
100
AcDbEntity
  8
0
  6
Continuous
 62
     0
370
    50
100
AcDbLine
 10
0.0
 20
534.0
 30
0.0
 11
5.0
 21
534.0
 31
0.0
  0
LINE
  5
B5
330
3F
100
AcDbEntity
  8
0
  6
Continuous
 62
     0
370
    50
100
AcDbLine
 10
0.0
 20
600.75
 30
0.0
 11
5.0
 21
600.75
 31
0.0
  0
LINE
  5
B6
330
3F
100
AcDbEntity
  8
0
  6
Continuous
 62
     0
370
    50
100
AcDbLine
 10
0.0
 20
667.5
 30
0.0
 11
5.0
 21
667.5
 31
0.0
  0
LINE
  5
B7
330
3F
100
AcDbEntity
  8
0
  6
Continuous
 62
     0
370
    50
100
AcDbLine
 10
0.0
 20
734.25
 30
0.0
 11
5.0
 21
734.25
 31
0.0
  0
LINE
  5
B8
330
3F
100
AcDbEntity
  8
0
  6
Continuous
 62
     0
370
    50
100
AcDbLine
 10
3.462890625
 20
400.5
 30
0.0
 11
5.0
 21
400.5
 31
0.0
  0
LINE
  5
B9
330
3F
100
AcDbEntity
  8
0
  6
Continuous
 62
     0
370
    30
100
AcDbLine
 10
5.0
 20
805.0
 30
0.0
 11
5.0
 21
-5.0
 31
0.0
  0
LINE
  5
BA
330
3F
100
AcDbEntity
  8
0
  6
Continuous
 62
     0
370
    30
100
AcDbLine
 10
-1148.0
 20
-5.0
 30
0.0
 11
5.0
 21
-5.0
 31
0.0
  0
LINE
  5
BB
330
3F
100
AcDbEntity
  8
0
  6
PHANTOM
 62
     0
370
    30
100
AcDbLine
 10
-1168.0
 20
820.0
 30
0.0
 11
-1168.0
 21
-20.0
 31
0.0
  0
LINE
  5
BC
330
3F
100
AcDbEntity
  8
0
  6
Continuous
 62
     0
370
    30
100
AcDbLine
 10
-1146.462331787261
 20
402.4994905825529
 30
0.0
 11
-1146.462347045999
 21
398.499490582582
 31
0.0
  0
LINE
  5
BD
330
3F
100
AcDbEntity
  8
0
  6
Continuous
 62
     0
370
    30
100
AcDbLine
 10
-1146.462275029315
 20
402.4995263465115
 30
0.0
 11
-1142.998173266878
 21
400.4995266016413
 31
0.0
  0
LINE
  5
BE
330
3F
100
AcDbEntity
  8
0
  6
Continuous
 62
     0
370
    30
100
AcDbLine
 10
-1142.998474120785
 20
400.500364037158
 30
0.0
 11
-1146.462575617141
 21
398.5003638314217
 31
0.0
  0
LINE
  5
BF
330
3F
100
AcDbEntity
  8
0
  6
Continuous
 62
     0
370
    30
100
AcDbLine
 10
-571.9991323133149
 20
803.4626312208387
 30
0.0
 11
-575.9991323132858
 21
803.4626464795768
 31
0.0
  0
LINE
  5
C0
330
3F
100
AcDbEntity
  8
0
  6
Continuous
 62
     0
370
    30
100
AcDbLine
 10
-572.0004421411293
 20
803.462943233378
 30
0.0
 11
-574.0004421680516
 21
799.998841633784
 31
0.0
  0
LINE
  5
C1
330
3F
100
AcDbEntity
  8
0
  6
Continuous
 62
     0
370
    30
100
AcDbLine
 10
-573.9999177412446
 20
799.999197865626
 30
0.0
 11
-575.9999174861148
 21
803.463299628063
 31
0.0
  0
LINE
  5
C2
330
3F
100
AcDbEntity
  8
0
  6
Continuous
 62
     0
370
    30
100
AcDbLine
 10
-576.000013217813
 20
-3.463882453074157
 30
0.0
 11
-572.0000132178421
 21
-3.463897711815926
 31
0.0
  0
LINE
  5
C3
330
3F
100
AcDbEntity
  8
0
  6
Continuous
 62
     0
370
    30
100
AcDbLine
 10
-576.0000442290599
 20
-3.46407161845741
 30
0.0
 11
-574.0000442021375
 21
0.00002998113672
 31
0.0
  0
LINE
  5
C4
330
3F
100
AcDbEntity
  8
0
  6
Continuous
 62
     0
370
    30
100
AcDbLine
 10
-573.9998327701551
 20
0.000092089177429
 30
0.0
 11
-571.9998327432328
 21
-3.464009510416702
 31
0.0
  0
LINE
  5
C5
330
3F
100
AcDbEntity
  8
0
  6
Continuous
 62
     0
370
    30
100
AcDbLine
 10
3.463861458854622
 20
398.4994985081076
 30
0.0
 11
3.463876717596391
 21
402.4994985080785
 31
0.0
  0
LINE
  5
C6
330
3F
100
AcDbEntity
  8
0
  6
Continuous
 62
     0
370
    30
100
AcDbLine
 10
3.463753104845381
 20
398.4997518923395
 30
0.0
 11
-0.000335177011948
 21
400.4997444686805
 31
0.0
  0
LINE
  5
C7
330
3F
100
AcDbEntity
  8
0
  6
Continuous
 62
     0
370
    30
100
AcDbLine
 10
-0.000001040352799
 20
400.5000834092879
 30
0.0
 11
3.464100722084225
 21
402.500083154158
 31
0.0
  0
LINE
  5
C8
330
3F
100
AcDbEntity
  8
0
  6
PHANTOM
 62
     0
370
    30
100
AcDbLine
 10
-1168.0
 20
820.0
 30
0.0
 11
20.0
 21
820.0
 31
0.0
  0
LINE
  5
C9
330
3F
100
AcDbEntity
  8
0
  6
Continuous
 62
     0
370
    30
100
AcDbLine
 10
-175.0
 20
27.5
 30
0.0
 11
-84.0
 21
27.5
 31
0.0
  0
LINE
  5
CA
330
3F
100
AcDbEntity
  8
0
  6
Continuous
 62
     0
370
    30
100
AcDbLine
 10
-175.0
 20
20.0
 30
0.0
 11
-84.0
 21
20.0
 31
0.0
  0
LINE
  5
CB
330
3F
100
AcDbEntity
  8
0
  6
Continuous
 62
     0
370
    30
100
AcDbLine
 10
-129.5
 20
12.5
 30
0.0
 11
-84.0
 21
12.5
 31
0.0
  0
LINE
  5
CC
330
3F
100
AcDbEntity
  8
0
  6
Continuous
 62
     0
370
    30
100
AcDbLine
 10
-175.0
 20
5.0
 30
0.0
 11
-84.0
 21
5.0
 31
0.0
  0
LINE
  5
CD
330
3F
100
AcDbEntity
  8
0
  6
Continuous
 62
     0
370
    50
100
AcDbLine
 10
-175.0
 20
37.5
 30
0.0
 11
0.0
 21
37.5
 31
0.0
  0
LINE
  5
CE
330
3F
100
AcDbEntity
  8
0
  6
Continuous
 62
     0
370
    50
100
AcDbLine
 10
-175.0
 20
45.0
 30
0.0
 11
-84.0
 21
45.0
 31
0.0
  0
LINE
  5
CF
330
3F
100
AcDbEntity
  8
0
  6
Continuous
 62
     0
370
    50
100
AcDbLine
 10
-175.0
 20
7.5
 30
0.0
 11
-84.0
 21
7.5
 31
0.0
  0
LINE
  5
D0
330
3F
100
AcDbEntity
  8
0
  6
Continuous
 62
     0
370
    50
100
AcDbLine
 10
-62.0
 20
37.5
 30
0.0
 11
-62.0
 21
0.0
 31
0.0
  0
LINE
  5
D1
330
3F
100
AcDbEntity
  8
0
  6
Continuous
 62
     0
370
    50
100
AcDbLine
 10
-26.0
 20
37.5
 30
0.0
 11
-26.0
 21
25.0
 31
0.0
  0
LINE
  5
D2
330
3F
100
AcDbEntity
  8
0
  6
Continuous
 62
     0
370
    50
100
AcDbLine
 10
-175.0
 20
22.5
 30
0.0
 11
-84.0
 21
22.5
 31
0.0
  0
LINE
  5
D3
330
3F
100
AcDbEntity
  8
0
  6
Continuous
 62
     0
370
    50
100
AcDbLine
 10
-102.0
 20
37.5
 30
0.0
 11
-102.0
 21
15.0
 31
0.0
  0
LINE
  5
D4
330
3F
100
AcDbEntity
  8
0
  6
Continuous
 62
     0
370
    30
100
AcDbLine
 10
-175.0
 20
42.5
 30
0.0
 11
0.0
 21
42.5
 31
0.0
  0
LINE
  5
D5
330
3F
100
AcDbEntity
  8
0
  6
Continuous
 62
     0
370
    50
100
AcDbLine
 10
-129.5
 20
15.0
 30
0.0
 11
-129.5
 21
0.0
 31
0.0
  0
LINE
  5
D6
330
3F
100
AcDbEntity
  8
0
  6
Continuous
 62
     0
370
    30
100
AcDbLine
 10
-84.0
 20
32.5
 30
0.0
 11
-62.0
 21
32.5
 31
0.0
  0
LINE
  5
D7
330
3F
100
AcDbEntity
  8
0
  6
Continuous
 62
     0
370
    50
100
AcDbLine
 10
-84.0
 20
12.5
 30
0.0
 11
-62.0
 21
12.5
 31
0.0
  0
LINE
  5
D8
330
3F
100
AcDbEntity
  8
0
  6
Continuous
 62
     0
370
    30
100
AcDbLine
 10
-84.0
 20
7.5
 30
0.0
 11
-62.0
 21
7.5
 31
0.0
  0
LINE
  5
D9
330
3F
100
AcDbEntity
  8
0
  6
Continuous
 62
     0
370
    30
100
AcDbLine
 10
-84.0
 20
20.0
 30
0.0
 11
-62.0
 21
20.0
 31
0.0
  0
LINE
  5
DA
330
3F
100
AcDbEntity
  8
0
  6
Continuous
 62
     0
370
    30
100
AcDbLine
 10
-62.0
 20
35.0
 30
0.0
 11
0.0
 21
35.0
 31
0.0
  0
LINE
  5
DB
330
3F
100
AcDbEntity
  8
0
  6
Continuous
 62
     0
370
    50
100
AcDbLine
 10
-84.0
 20
25.0
 30
0.0
 11
0.0
 21
25.0
 31
0.0
  0
LINE
  5
DC
330
3F
100
AcDbEntity
  8
0
  6
Continuous
 62
     0
370
    30
100
AcDbLine
 10
-8.300003051757812
 20
800.0
 30
0.0
 11
-8.300003051757812
 21
778.0
 31
0.0
  0
LINE
  5
DD
330
3F
100
AcDbEntity
  8
0
  6
Continuous
 62
     0
370
    30
100
AcDbLine
 10
-71.4999771118164
 20
800.0
 30
0.0
 11
-71.4999771118164
 21
778.0
 31
0.0
  0
LINE
  5
DE
330
3F
100
AcDbEntity
  8
0
  6
Continuous
 62
     0
370
    30
100
AcDbLine
 10
-49.0999755859375
 20
800.0
 30
0.0
 11
-49.0999755859375
 21
778.0
 31
0.0
  0
LINE
  5
DF
330
3F
100
AcDbEntity
  8
0
  6
Continuous
 62
     0
370
    30
100
AcDbLine
 10
-26.5999870300293
 20
800.0
 30
0.0
 11
-26.5999870300293
 21
778.0
 31
0.0
  0
LINE
  5
E0
330
3F
100
AcDbEntity
  8
0
  6
Continuous
 62
     0
370
    30
100
AcDbLine
 10
-78.19996643066406
 20
783.0
 30
0.0
 11
0.0
 21
783.0
 31
0.0
  0
LINE
  5
E1
330
3F
100
AcDbEntity
  8
0
  6
Continuous
 62
     0
370
    30
100
AcDbLine
 10
-78.19996643066406
 20
788.0
 30
0.0
 11
0.0
 21
788.0
 31
0.0
  0
LINE
  5
E2
330
3F
100
AcDbEntity
  8
0
  6
Continuous
 62
     0
370
    30
100
AcDbLine
 10
-78.19996643066406
 20
793.0
 30
0.0
 11
0.0
 21
793.0
 31
0.0
  0
LINE
  5
E3
330
3F
100
AcDbEntity
  8
0
  6
Continuous
 62
     0
370
    30
100
AcDbLine
 10
-175.0
 20
7.499999999999993
 30
0.0
 11
-129.5
 21
14.99999999999999
 31
0.0
  0
LINE
  5
E4
330
3F
100
AcDbEntity
  8
0
  6
Continuous
 62
     0
370
    30
100
AcDbLine
 10
-62.0
 20
20.0
 30
0.0
 11
0.0
 21
20.0
 31
0.0
  0
CIRCLE
  5
E5
330
3F
100
AcDbEntity
  8
0
  6
Continuous
 62
     0
370
    50
100
AcDbCircle
 10
-96.64067077636719
 20
33.95587921142578
 30
0.0
 40
1.200000047683716
  0
CIRCLE
  5
E6
330
3F
100
AcDbEntity
  8
0
  6
Continuous
 62
     0
370
    50
100
AcDbCircle
 10
-96.64067077636719
 20
33.95587921142578
 30
0.0
 40
2.0
  0
MTEXT
  5
E7
330
3F
100
AcDbEntity
  8
0
 62
     0
100
AcDbMText
 10
-1146.099998533726
 20
165.3000040054321
 30
0.0
 40
3.149991989135742
 41
0.0
 71
     7
 72
     1
  1
{\W1;J}
 73
     1
 44
1.0
  0
MTEXT
  5
10A
330
3F
100
AcDbEntity
  8
0
 62
     0
100
AcDbMText
 10
-1146.099998533726
 20
98.55000400543213
 30
0.0
 40
3.149991989135742
 41
0.0
 71
     7
 72
     1
  1
{\W1;K}
 73
     1
 44
1.0
  0
MTEXT
  5
10B
330
3F
100
AcDbEntity
  8
0
 62
     0
100
AcDbMText
 10
-1146.099998533726
 20
232.0500040054321
 30
0.0
 40
3.149991989135742
 41
0.0
 71
     7
 72
     1
  1
{\W1;I}
 73
     1
 44
1.0
  0
MTEXT
  5
10C
330
3F
100
AcDbEntity
  8
0
 62
     0
100
AcDbMText
 10
-1146.099998533726
 20
298.8000040054321
 30
0.0
 40
3.149991989135742
 41
0.0
 71
     7
 72
     1
  1
{\W1;H}
 73
     1
 44
1.0
  0
MTEXT
  5
10D
330
3F
100
AcDbEntity
  8
0
 62
     0
100
AcDbMText
 10
-1146.099998533726
 20
365.5500040054321
 30
0.0
 40
3.149991989135742
 41
0.0
 71
     7
 72
     1
  1
{\W1;G}
 73
     1
 44
1.0
  0
MTEXT
  5
10E
330
3F
100
AcDbEntity
  8
0
 62
     0
100
AcDbMText
 10
-1146.099998533726
 20
432.3000040054321
 30
0.0
 40
3.149991989135742
 41
0.0
 71
     7
 72
     1
  1
{\W1;F}
 73
     1
 44
1.0
  0
MTEXT
  5
10F
330
3F
100
AcDbEntity
  8
0
 62
     0
100
AcDbMText
 10
-1146.099998533726
 20
31.80000400543213
 30
0.0
 40
3.149991989135742
 41
0.0
 71
     7
 72
     1
  1
{\W1;L}
 73
     1
 44
1.0
  0
MTEXT
  5
110
330
3F
100
AcDbEntity
  8
0
 62
     0
100
AcDbMText
 10
-1146.099998533726
 20
499.0500040054321
 30
0.0
 40
3.149991989135742
 41
0.0
 71
     7
 72
     1
  1
{\W1;E}
 73
     1
 44
1.0
  0
MTEXT
  5
111
330
3F
100
AcDbEntity
  8
0
 62
     0
100
AcDbMText
 10
-1146.099998533726
 20
565.8000040054321
 30
0.0
 40
3.149991989135742
 41
0.0
 71
     7
 72
     1
  1
{\W1;D}
 73
     1
 44
1.0
  0
MTEXT
  5
112
330
3F
100
AcDbEntity
  8
0
 62
     0
100
AcDbMText
 10
-1146.099998533726
 20
632.5500040054321
 30
0.0
 40
3.149991989135742
 41
0.0
 71
     7
 72
     1
  1
{\W1;C}
 73
     1
 44
1.0
  0
MTEXT
  5
113
330
3F
100
AcDbEntity
  8
0
 62
     0
100
AcDbMText
 10
-1146.099998533726
 20
699.3000040054321
 30
0.0
 40
3.149991989135742
 41
0.0
 71
     7
 72
     1
  1
{\W1;B}
 73
     1
 44
1.0
  0
MTEXT
  5
114
330
3F
100
AcDbEntity
  8
0
 62
     0
100
AcDbMText
 10
-1146.099998533726
 20
766.0500040054321
 30
0.0
 40
3.149991989135742
 41
0.0
 71
     7
 72
     1
  1
{\W1;A}
 73
     1
 44
1.0
  0
MTEXT
  5
115
330
3F
100
AcDbEntity
  8
0
 62
     0
100
AcDbMText
 10
-1042.349998533726
 20
800.9250040054321
 30
0.0
 40
3.149991989135742
 41
0.0
 71
     7
 72
     1
  1
{\W1;2}
 73
     1
 44
1.0
  0
MTEXT
  5
116
330
3F
100
AcDbEntity
  8
0
 62
     0
100
AcDbMText
 10
-970.8499985337257
 20
800.9250040054321
 30
0.0
 40
3.149991989135742
 41
0.0
 71
     7
 72
     1
  1
{\W1;3}
 73
     1
 44
1.0
  0
MTEXT
  5
117
330
3F
100
AcDbEntity
  8
0
 62
     0
100
AcDbMText
 10
-899.3499985337257
 20
800.9250040054321
 30
0.0
 40
3.149991989135742
 41
0.0
 71
     7
 72
     1
  1
{\W1;4}
 73
     1
 44
1.0
  0
MTEXT
  5
118
330
3F
100
AcDbEntity
  8
0
 62
     0
100
AcDbMText
 10
-827.8499985337257
 20
800.9250040054321
 30
0.0
 40
3.149991989135742
 41
0.0
 71
     7
 72
     1
  1
{\W1;5}
 73
     1
 44
1.0
  0
MTEXT
  5
119
330
3F
100
AcDbEntity
  8
0
 62
     0
100
AcDbMText
 10
-756.3499985337257
 20
800.9250040054321
 30
0.0
 40
3.149991989135742
 41
0.0
 71
     7
 72
     1
  1
{\W1;6}
 73
     1
 44
1.0
  0
MTEXT
  5
11A
330
3F
100
AcDbEntity
  8
0
 62
     0
100
AcDbMText
 10
-684.8499985337257
 20
800.9250040054321
 30
0.0
 40
3.149991989135742
 41
0.0
 71
     7
 72
     1
  1
{\W1;7}
 73
     1
 44
1.0
  0
MTEXT
  5
11B
330
3F
100
AcDbEntity
  8
0
 62
     0
100
AcDbMText
 10
-613.3499985337257
 20
800.9250040054321
 30
0.0
 40
3.149991989135742
 41
0.0
 71
     7
 72
     1
  1
{\W1;8}
 73
     1
 44
1.0
  0
MTEXT
  5
11C
330
3F
100
AcDbEntity
  8
0
 62
     0
100
AcDbMText
 10
-541.8499985337257
 20
800.9250040054321
 30
0.0
 40
3.149991989135742
 41
0.0
 71
     7
 72
     1
  1
{\W1;9}
 73
     1
 44
1.0
  0
MTEXT
  5
11D
330
3F
100
AcDbEntity
  8
0
 62
     0
100
AcDbMText
 10
-42.44519501924515
 20
800.9250040054321
 30
0.0
 40
3.149991989135742
 41
0.0
 71
     7
 72
     1
  1
{\W1;16}
 73
     1
 44
1.0
  0
MTEXT
  5
11E
330
3F
100
AcDbEntity
  8
0
 62
     0
100
AcDbMText
 10
-113.9451950192451
 20
800.9250040054321
 30
0.0
 40
3.149991989135742
 41
0.0
 71
     7
 72
     1
  1
{\W1;15}
 73
     1
 44
1.0
  0
MTEXT
  5
11F
330
3F
100
AcDbEntity
  8
0
 62
     0
100
AcDbMText
 10
-185.4451950192451
 20
800.9250040054321
 30
0.0
 40
3.149991989135742
 41
0.0
 71
     7
 72
     1
  1
{\W1;14}
 73
     1
 44
1.0
  0
MTEXT
  5
120
330
3F
100
AcDbEntity
  8
0
 62
     0
100
AcDbMText
 10
-256.9451950192451
 20
800.9250040054321
 30
0.0
 40
3.149991989135742
 41
0.0
 71
     7
 72
     1
  1
{\W1;13}
 73
     1
 44
1.0
  0
MTEXT
  5
121
330
3F
100
AcDbEntity
  8
0
 62
     0
100
AcDbMText
 10
-328.4451950192451
 20
800.9250040054321
 30
0.0
 40
3.149991989135742
 41
0.0
 71
     7
 72
     1
  1
{\W1;12}
 73
     1
 44
1.0
  0
MTEXT
  5
122
330
3F
100
AcDbEntity
  8
0
 62
     0
100
AcDbMText
 10
-399.9451950192451
 20
800.9250040054321
 30
0.0
 40
3.149991989135742
 41
0.0
 71
     7
 72
     1
  1
{\W1;11}
 73
     1
 44
1.0
  0
MTEXT
  5
123
330
3F
100
AcDbEntity
  8
0
 62
     0
100
AcDbMText
 10
-1113.849998533726
 20
800.9250040054321
 30
0.0
 40
3.149991989135742
 41
0.0
 71
     7
 72
     1
  1
{\W1;1}
 73
     1
 44
1.0
  0
MTEXT
  5
124
330
3F
100
AcDbEntity
  8
0
 62
     0
100
AcDbMText
 10
-471.4451950192451
 20
800.9250040054321
 30
0.0
 40
3.149991989135742
 41
0.0
 71
     7
 72
     1
  1
{\W1;10}
 73
     1
 44
1.0
  0
MTEXT
  5
125
330
3F
100
AcDbEntity
  8
0
 62
     0
100
AcDbMText
 10
-1037.349998533726
 20
-4.074995994567871
 30
0.0
 40
3.149991989135742
 41
0.0
 71
     7
 72
     1
  1
{\W1;2}
 73
     1
 44
1.0
  0
MTEXT
  5
126
330
3F
100
AcDbEntity
  8
0
 62
     0
100
AcDbMText
 10
-965.8499985337257
 20
-4.074995994567871
 30
0.0
 40
3.149991989135742
 41
0.0
 71
     7
 72
     1
  1
{\W1;3}
 73
     1
 44
1.0
  0
MTEXT
  5
127
330
3F
100
AcDbEntity
  8
0
 62
     0
100
AcDbMText
 10
-894.3499985337257
 20
-4.074995994567871
 30
0.0
 40
3.149991989135742
 41
0.0
 71
     7
 72
     1
  1
{\W1;4}
 73
     1
 44
1.0
  0
MTEXT
  5
128
330
3F
100
AcDbEntity
  8
0
 62
     0
100
AcDbMText
 10
-822.8499985337257
 20
-4.074995994567871
 30
0.0
 40
3.149991989135742
 41
0.0
 71
     7
 72
     1
  1
{\W1;5}
 73
     1
 44
1.0
  0
MTEXT
  5
129
330
3F
100
AcDbEntity
  8
0
 62
     0
100
AcDbMText
 10
-751.3499985337257
 20
-4.074995994567871
 30
0.0
 40
3.149991989135742
 41
0.0
 71
     7
 72
     1
  1
{\W1;6}
 73
     1
 44
1.0
  0
MTEXT
  5
12A
330
3F
100
AcDbEntity
  8
0
 62
     0
100
AcDbMText
 10
-679.8499985337257
 20
-4.074995994567871
 30
0.0
 40
3.149991989135742
 41
0.0
 71
     7
 72
     1
  1
{\W1;7}
 73
     1
 44
1.0
  0
MTEXT
  5
12B
330
3F
100
AcDbEntity
  8
0
 62
     0
100
AcDbMText
 10
-608.3499985337257
 20
-4.074995994567871
 30
0.0
 40
3.149991989135742
 41
0.0
 71
     7
 72
     1
  1
{\W1;8}
 73
     1
 44
1.0
  0
MTEXT
  5
12C
330
3F
100
AcDbEntity
  8
0
 62
     0
100
AcDbMText
 10
-536.8499985337257
 20
-4.074995994567871
 30
0.0
 40
3.149991989135742
 41
0.0
 71
     7
 72
     1
  1
{\W1;9}
 73
     1
 44
1.0
  0
MTEXT
  5
12D
330
3F
100
AcDbEntity
  8
0
 62
     0
100
AcDbMText
 10
1.900001466274261
 20
165.3000040054321
 30
0.0
 40
3.149991989135742
 41
0.0
 71
     7
 72
     1
  1
{\W1;J}
 73
     1
 44
1.0
  0
MTEXT
  5
12E
330
3F
100
AcDbEntity
  8
0
 62
     0
100
AcDbMText
 10
1.900001466274261
 20
98.55000400543213
 30
0.0
 40
3.149991989135742
 41
0.0
 71
     7
 72
     1
  1
{\W1;K}
 73
     1
 44
1.0
  0
MTEXT
  5
12F
330
3F
100
AcDbEntity
  8
0
 62
     0
100
AcDbMText
 10
1.900001466274261
 20
232.0500040054321
 30
0.0
 40
3.149991989135742
 41
0.0
 71
     7
 72
     1
  1
{\W1;I}
 73
     1
 44
1.0
  0
MTEXT
  5
130
330
3F
100
AcDbEntity
  8
0
 62
     0
100
AcDbMText
 10
1.900001466274261
 20
298.8000040054321
 30
0.0
 40
3.149991989135742
 41
0.0
 71
     7
 72
     1
  1
{\W1;H}
 73
     1
 44
1.0
  0
MTEXT
  5
131
330
3F
100
AcDbEntity
  8
0
 62
     0
100
AcDbMText
 10
1.900001466274261
 20
365.5500040054321
 30
0.0
 40
3.149991989135742
 41
0.0
 71
     7
 72
     1
  1
{\W1;G}
 73
     1
 44
1.0
  0
MTEXT
  5
132
330
3F
100
AcDbEntity
  8
0
 62
     0
100
AcDbMText
 10
1.900001466274261
 20
432.3000040054321
 30
0.0
 40
3.149991989135742
 41
0.0
 71
     7
 72
     1
  1
{\W1;F}
 73
     1
 44
1.0
  0
MTEXT
  5
133
330
3F
100
AcDbEntity
  8
0
 62
     0
100
AcDbMText
 10
1.900001466274261
 20
35.80000400543213
 30
0.0
 40
3.149991989135742
 41
0.0
 71
     7
 72
     1
  1
{\W1;L}
 73
     1
 44
1.0
  0
MTEXT
  5
134
330
3F
100
AcDbEntity
  8
0
 62
     0
100
AcDbMText
 10
1.900001466274261
 20
499.0500040054321
 30
0.0
 40
3.149991989135742
 41
0.0
 71
     7
 72
     1
  1
{\W1;E}
 73
     1
 44
1.0
  0
MTEXT
  5
135
330
3F
100
AcDbEntity
  8
0
 62
     0
100
AcDbMText
 10
1.900001466274261
 20
565.8000040054321
 30
0.0
 40
3.149991989135742
 41
0.0
 71
     7
 72
     1
  1
{\W1;D}
 73
     1
 44
1.0
  0
MTEXT
  5
136
330
3F
100
AcDbEntity
  8
0
 62
     0
100
AcDbMText
 10
1.900001466274261
 20
632.5500040054321
 30
0.0
 40
3.149991989135742
 41
0.0
 71
     7
 72
     1
  1
{\W1;C}
 73
     1
 44
1.0
  0
MTEXT
  5
137
330
3F
100
AcDbEntity
  8
0
 62
     0
100
AcDbMText
 10
1.900001466274261
 20
699.3000040054321
 30
0.0
 40
3.149991989135742
 41
0.0
 71
     7
 72
     1
  1
{\W1;B}
 73
     1
 44
1.0
  0
MTEXT
  5
138
330
3F
100
AcDbEntity
  8
0
 62
     0
100
AcDbMText
 10
1.900001466274261
 20
766.0500040054321
 30
0.0
 40
3.149991989135742
 41
0.0
 71
     7
 72
     1
  1
{\W1;A}
 73
     1
 44
1.0
  0
MTEXT
  5
139
330
3F
100
AcDbEntity
  8
0
 62
     0
100
AcDbMText
 10
-37.44519501924515
 20
-4.074995994567871
 30
0.0
 40
3.149991989135742
 41
0.0
 71
     7
 72
     1
  1
{\W1;16}
 73
     1
 44
1.0
  0
MTEXT
  5
13A
330
3F
100
AcDbEntity
  8
0
 62
     0
100
AcDbMText
 10
-108.9451950192451
 20
-4.074995994567871
 30
0.0
 40
3.149991989135742
 41
0.0
 71
     7
 72
     1
  1
{\W1;15}
 73
     1
 44
1.0
  0
MTEXT
  5
13B
330
3F
100
AcDbEntity
  8
0
 62
     0
100
AcDbMText
 10
-180.4451950192451
 20
-4.074995994567871
 30
0.0
 40
3.149991989135742
 41
0.0
 71
     7
 72
     1
  1
{\W1;14}
 73
     1
 44
1.0
  0
MTEXT
  5
13C
330
3F
100
AcDbEntity
  8
0
 62
     0
100
AcDbMText
 10
-251.9451950192451
 20
-4.074995994567871
 30
0.0
 40
3.149991989135742
 41
0.0
 71
     7
 72
     1
  1
{\W1;13}
 73
     1
 44
1.0
  0
MTEXT
  5
13D
330
3F
100
AcDbEntity
  8
0
 62
     0
100
AcDbMText
 10
-323.4449508786201
 20
-4.074995994567871
 30
0.0
 40
3.149991989135742
 41
0.0
 71
     7
 72
     1
  1
{\W1;12}
 73
     1
 44
1.0
  0
MTEXT
  5
13E
330
3F
100
AcDbEntity
  8
0
 62
     0
100
AcDbMText
 10
-394.9449508786201
 20
-4.074995994567871
 30
0.0
 40
3.149991989135742
 41
0.0
 71
     7
 72
     1
  1
{\W1;11}
 73
     1
 44
1.0
  0
MTEXT
  5
13F
330
3F
100
AcDbEntity
  8
0
 62
     0
100
AcDbMText
 10
-1108.849998533726
 20
-4.074995994567871
 30
0.0
 40
3.149991989135742
 41
0.0
 71
     7
 72
     1
  1
{\W1;1}
 73
     1
 44
1.0
  0
MTEXT
  5
140
330
3F
100
AcDbEntity
  8
0
 62
     0
100
AcDbMText
 10
-466.4449508786201
 20
-4.074995994567871
 30
0.0
 40
3.149991989135742
 41
0.0
 71
     7
 72
     1
  1
{\W1;10}
 73
     1
 44
1.0
  0
MTEXT
  5
141
330
3F
100
AcDbEntity
  8
0
 62
     0
100
AcDbMText
 10
-22.37855982780457
 20
796.3499511480331
 30
0.0
 40
2.700000047683716
 41
0.0
 71
     7
 72
     1
  1
{\W0.833333;備 考}
 73
     1
 44
1.0
  0
MTEXT
  5
142
330
3F
100
AcDbEntity
  8
0
 62
     0
100
AcDbMText
 10
-7.878573179244995
 20
796.3499511480331
 30
0.0
 40
2.700000047683716
 41
0.0
 71
     7
 72
     1
  1
{\W0.833333;変更数}
 73
     1
 44
1.0
  0
MTEXT
  5
143
330
3F
100
AcDbEntity
  8
0
 62
     0
100
AcDbMText
 10
-171.5799999952316
 20
50.20000004768372
 30
0.0
 40
2.099999904632568
 41
0.0
 71
     7
 72
     1
  1
{\W0.833333;加工の種類}
 73
     1
 44
1.0
  0
MTEXT
  5
144
330
3F
100
AcDbEntity
  8
0
 62
     0
100
AcDbMText
 10
-171.5799999952316
 20
42.70000004768372
 30
0.0
 40
2.099999904632568
 41
0.0
 71
     7
 72
     1
  1
{\W0.833333;材 質}
 73
     1
 44
1.0
  0
MTEXT
  5
145
330
3F
100
AcDbEntity
  8
0
 62
     0
100
AcDbMText
 10
-171.5799999952316
 20
35.20000004768372
 30
0.0
 40
2.099999904632568
 41
0.0
 71
     7
 72
     1
  1
{\W0.833333;表面処理}
 73
     1
 44
1.0
  0
MTEXT
  5
146
330
3F
100
AcDbEntity
  8
0
 62
     0
100
AcDbMText
 10
-171.5799999952316
 20
27.70000004768372
 30
0.0
 40
2.099999904632568
 41
0.0
 71
     7
 72
     1
  1
{\W0.833333;熱処理}
 73
     1
 44
1.0
  0
MTEXT
  5
147
330
3F
100
AcDbEntity
  8
0
 62
     0
100
AcDbMText
 10
-171.5799999952316
 20
20.20000004768372
 30
0.0
 40
2.099999904632568
 41
0.0
 71
     7
 72
     1
  1
{\W0.833333;硬 さ}
 73
     1
 44
1.0
  0
MTEXT
  5
148
330
3F
100
AcDbEntity
  8
0
 62
     0
100
AcDbMText
 10
-80.57999999523163
 20
10.20000004768372
 30
0.0
 40
2.099999904632568
 41
0.0
 71
     7
 72
     1
  1
{\W0.833333;作成日}
 73
     1
 44
1.0
  0
MTEXT
  5
149
330
3F
100
AcDbEntity
  8
0
 62
     0
100
AcDbMText
 10
-126.0799999952316
 20
5.200000047683716
 30
0.0
 40
2.099999904632568
 41
0.0
 71
     7
 72
     1
  1
{\W0.833333;作 成}
 73
     1
 44
1.0
  0
MTEXT
  5
14A
330
3F
100
AcDbEntity
  8
0
 62
     0
100
AcDbMText
 10
-126.0799999952316
 20
12.70000004768372
 30
0.0
 40
2.099999904632568
 41
0.0
 71
     7
 72
     1
  1
{\W0.833333;点 検}
 73
     1
 44
1.0
  0
MTEXT
  5
14B
330
3F
100
AcDbEntity
  8
0
 62
     0
100
AcDbMText
 10
-80.57999998927116
 20
50.20000004768372
 30
0.0
 40
2.099999904632568
 41
0.0
 71
     7
 72
     1
  1
{\W0.833333;品 名}
 73
     1
 44
1.0
  0
MTEXT
  5
14C
330
3F
100
AcDbEntity
  8
0
 62
     0
100
AcDbMText
 10
-59.57999999523163
 20
35.20000004768372
 30
0.0
 40
2.099999904632568
 41
0.0
 71
     7
 72
     1
  1
{\W0.833333;部品ｺｰド}
 73
     1
 44
1.0
  0
MTEXT
  5
14D
330
3F
100
AcDbEntity
  8
0
 62
     0
100
AcDbMText
 10
-80.57999999523163
 20
22.70000004768372
 30
0.0
 40
2.099999904632568
 41
0.0
 71
     7
 72
     1
  1
{\W0.833333;GTｺｰド}
 73
     1
 44
1.0
  0
MTEXT
  5
14E
330
3F
100
AcDbEntity
  8
0
 62
     0
100
AcDbMText
 10
-23.38000304698944
 20
35.20000004768372
 30
0.0
 40
2.099999904632568
 41
0.0
 71
     7
 72
     1
  1
{\W0.833333;分割}
 73
     1
 44
1.0
  0
MTEXT
  5
14F
330
3F
100
AcDbEntity
  8
0
 62
     0
100
AcDbMText
 10
-98.57999999523163
 20
27.70000004768372
 30
0.0
 40
2.099999904632568
 41
0.0
 71
     7
 72
     1
  1
{\W0.833333;単位}
 73
     1
 44
1.0
  0
MTEXT
  5
150
330
3F
100
AcDbEntity
  8
0
 62
     0
100
AcDbMText
 10
-70.0647619009018
 20
50.39999997615814
 30
0.0
 40
1.700000047683716
 41
0.0
 71
     7
 72
     1
  1
{\W0.833333;PART NAME}
 73
     1
 44
1.0
  0
MTEXT
  5
151
330
3F
100
AcDbEntity
  8
0
 62
     0
100
AcDbMText
 10
-14.96476534605026
 20
35.39999997615814
 30
0.0
 40
1.700000047683716
 41
0.0
 71
     7
 72
     1
  1
{\W0.833333;DIVISION}
 73
     1
 44
1.0
  0
MTEXT
  5
152
330
3F
100
AcDbEntity
  8
0
 62
     0
100
AcDbMText
 10
-45.01478937864304
 20
35.39999997615814
 30
0.0
 40
1.700000047683716
 41
0.0
 71
     7
 72
     1
  1
{\W0.833333;PART CODE}
 73
     1
 44
1.0
  0
MTEXT
  5
153
330
3F
100
AcDbEntity
  8
0
 62
     0
100
AcDbMText
 10
-77.06476190686226
 20
20.39999997615814
 30
0.0
 40
1.700000047683716
 41
0.0
 71
     7
 72
     1
  1
{\W0.833333;GT CODE}
 73
     1
 44
1.0
  0
MTEXT
  5
154
330
3F
100
AcDbEntity
  8
0
 62
     0
100
AcDbMText
 10
-93.56476190686226
 20
27.89999997615814
 30
0.0
 40
1.700000047683716
 41
0.0
 71
     7
 72
     1
  1
{\W0.833333;UNIT}
 73
     1
 44
1.0
  0
MTEXT
  5
155
330
3F
100
AcDbEntity
  8
0
 62
     0
100
AcDbMText
 10
-156.8647649586201
 20
50.39999997615814
 30
0.0
 40
1.700000047683716
 41
0.0
 71
     7
 72
     1
  1
{\W0.833333;WORKING PROCESS}
 73
     1
 44
1.0
  0
MTEXT
  5
156
330
3F
100
AcDbEntity
  8
0
 62
     0
100
AcDbMText
 10
-77.06476190686226
 20
7.899999976158142
 30
0.0
 40
1.700000047683716
 41
0.0
 71
     7
 72
     1
  1
{\W0.833333;DATE}
 73
     1
 44
1.0
  0
MTEXT
  5
157
330
3F
100
AcDbEntity
  8
0
 62
     0
100
AcDbMText
 10
-161.0647619068623
 20
27.89999997615814
 30
0.0
 40
1.700000047683716
 41
0.0
 71
     7
 72
     1
  1
{\W0.833333;HEAT TREATMENT}
 73
     1
 44
1.0
  0
MTEXT
  5
158
330
3F
100
AcDbEntity
  8
0
 62
     0
100
AcDbMText
 10
-161.0647619068623
 20
20.39999997615814
 30
0.0
 40
1.700000047683716
 41
0.0
 71
     7
 72
     1
  1
{\W0.833333;HARDNESS}
 73
     1
 44
1.0
  0
MTEXT
  5
159
330
3F
100
AcDbEntity
  8
0
 62
     0
100
AcDbMText
 10
-115.5647619068623
 20
5.399999976158142
 30
0.0
 40
1.700000047683716
 41
0.0
 71
     7
 72
     1
  1
{\W0.833333;DESIGNED}
 73
     1
 44
1.0
  0
MTEXT
  5
15A
330
3F
100
AcDbEntity
  8
0
 62
     0
100
AcDbMText
 10
-115.5647619068623
 20
12.89999997615814
 30
0.0
 40
1.700000047683716
 41
0.0
 71
     7
 72
     1
  1
{\W0.833333;CHECKED}
 73
     1
 44
1.0
  0
MTEXT
  5
15B
330
3F
100
AcDbEntity
  8
0
 62
     0
100
AcDbMText
 10
-161.0647619068623
 20
42.89999997615814
 30
0.0
 40
1.700000047683716
 41
0.0
 71
     7
 72
     1
  1
{\W0.833333;MATERIAL}
 73
     1
 44
1.0
  0
MTEXT
  5
15C
330
3F
100
AcDbEntity
  8
0
 62
     0
100
AcDbMText
 10
-158.9647558033466
 20
35.39999997615814
 30
0.0
 40
1.700000047683716
 41
0.0
 71
     7
 72
     1
  1
{\W0.833333;SURFACE TREATMENT}
 73
     1
 44
1.0
  0
MTEXT
  5
15D
330
3F
100
AcDbEntity
  8
0
 62
     0
100
AcDbMText
 10
-23.82999994754791
 20
28.95000076293945
 30
0.0
 40
2.099998474121094
 41
0.0
 71
     7
 72
     1
  1
{\W0.833333;SHEET  OF}
 73
     1
 44
1.0
  0
MTEXT
  5
15E
330
3F
100
AcDbEntity
  8
0
 62
     0
100
AcDbMText
 10
-80.57051852941512
 20
35.20000004768372
 30
0.0
 40
2.099999904632568
 41
0.0
 71
     7
 72
     1
  1
{\W0.734569;非比例尺部分}
 73
     1
 44
1.0
  0
MTEXT
  5
15F
330
3F
100
AcDbEntity
  8
0
 62
     0
100
AcDbMText
 10
-77.04692890048027
 20
32.89999997615814
 30
0.0
 40
1.700000047683716
 41
0.0
 71
     7
 72
     1
  1
{\W0.603866;OUT OF SCALE}
 73
     1
 44
1.0
  0
MTEXT
  5
160
330
3F
100
AcDbEntity
  8
0
 62
     0
100
AcDbMText
 10
-98.57999999523163
 20
20.20000004768372
 30
0.0
 40
2.099999904632568
 41
0.0
 71
     7
 72
     1
  1
{\W0.833333;尺度}
 73
     1
 44
1.0
  0
MTEXT
  5
161
330
3F
100
AcDbEntity
  8
0
 62
     0
100
AcDbMText
 10
-93.56476190686226
 20
20.39999997615814
 30
0.0
 40
1.700000047683716
 41
0.0
 71
     7
 72
     1
  1
{\W0.833333;SCALE}
 73
     1
 44
1.0
  0
MTEXT
  5
162
330
3F
100
AcDbEntity
  8
0
 62
     0
100
AcDbMText
 10
-94.4528556227684
 20
23.64999997615814
 30
0.0
 40
2.700000047683716
 41
0.0
 71
     7
 72
     1
  1
{\W0.833333;ｍｍ}
 73
     1
 44
1.0
  0
MTEXT
  5
163
330
3F
100
AcDbEntity
  8
0
 62
     0
100
AcDbMText
 10
-94.19999921321869
 20
15.92500114440918
 30
0.0
 40
3.149997711181641
 41
0.0
 71
     7
 72
     1
  1
{\W1;:}
 73
     1
 44
1.0
  0
MTEXT
  5
164
330
3F
100
AcDbEntity
  8
0
 62
     0
100
AcDbMText
 10
-161.0647619068623
 20
5.399999976158142
 30
0.0
 40
1.700000047683716
 41
0.0
 71
     7
 72
     1
  1
{\W0.833333;DECIDED}
 73
     1
 44
1.0
  0
MTEXT
  5
165
330
3F
100
AcDbEntity
  8
0
 62
     0
100
AcDbMText
 10
-171.5799999952316
 20
5.200000047683716
 30
0.0
 40
2.099999904632568
 41
0.0
 71
     7
 72
     1
  1
{\W0.833333;決 定}
 73
     1
 44
1.0
  0
MTEXT
  5
166
330
3F
100
AcDbEntity
  8
0
 62
     0
100
AcDbMText
 10
-47.16473368406296
 20
793.6497558355331
 30
0.0
 40
1.700000047683716
 41
0.0
 71
     7
 72
     1
  1
{\W1;DATE (Y/M/D)}
 73
     1
 44
1.0
  0
MTEXT
  5
167
330
3F
100
AcDbEntity
  8
0
 62
     0
100
AcDbMText
 10
-6.364764958620071
 20
793.6497558355331
 30
0.0
 40
1.700000047683716
 41
0.0
 71
     7
 72
     1
  1
{\W1;CHG.}
 73
     1
 44
1.0
  0
MTEXT
  5
168
330
3F
100
AcDbEntity
  8
0
 62
     0
100
AcDbMText
 10
-65.66473749279976
 20
793.6497558355331
 30
0.0
 40
1.700000047683716
 41
0.0
 71
     7
 72
     1
  1
{\W1;INF.NO.}
 73
     1
 44
1.0
  0
MTEXT
  5
169
330
3F
100
AcDbEntity
  8
0
 62
     0
100
AcDbMText
 10
-77.22854715585709
 20
796.3499511480331
 30
0.0
 40
2.700000047683716
 41
0.0
 71
     7
 72
     1
  1
{\W0.833333;符号}
 73
     1
 44
1.0
  0
MTEXT
  5
16A
330
3F
100
AcDbEntity
  8
0
 62
     0
100
AcDbMText
 10
-23.81475618481636
 20
793.6497558355331
 30
0.0
 40
1.700000047683716
 41
0.0
 71
     7
 72
     1
  1
{\W1;REMARKS}
 73
     1
 44
1.0
  0
MTEXT
  5
16B
330
3F
100
AcDbEntity
  8
0
 62
     0
100
AcDbMText
 10
-77.06473138928413
 20
793.6497558355331
 30
0.0
 40
1.700000047683716
 41
0.0
 71
     7
 72
     1
  1
{\W1;SYM.}
 73
     1
 44
1.0
  0
MTEXT
  5
16C
330
3F
100
AcDbEntity
  8
0
 62
     0
100
AcDbMText
 10
-44.27855122089386
 20
796.3499511480331
 30
0.0
 40
2.700000047683716
 41
0.0
 71
     7
 72
     1
  1
{\W0.833333;年 月 日}
 73
     1
 44
1.0
  0
MTEXT
  5
16D
330
3F
100
AcDbEntity
  8
0
 62
     0
100
AcDbMText
 10
-66.72855198383331
 20
796.3499511480331
 30
0.0
 40
2.700000047683716
 41
0.0
 71
     7
 72
     1
  1
{\W0.833333;通知書番号}
 73
     1
 44
1.0
  0
MTEXT
  5
16E
330
3F
100
AcDbEntity
  8
0
 62
     0
100
AcDbMText
 10
-26.8600006878376
 20
-13.4300000667572
 30
0.0
 40
2.099999904632568
 41
0.0
 71
     7
 72
     1
  1
{\W1;T0-007-034 V.2.02}
 73
     1
 44
1.0
  0
MTEXT
  5
16F
330
3F
100
AcDbEntity
  8
0
 62
     0
100
AcDbMText
 10
-49.62000000476837
 20
20.92500007152557
 30
0.0
 40
3.149999856948853
 41
0.0
 71
     7
 72
     1
  1
{\W1;CONFIDENTIAL}
 73
     1
 44
1.0
  0
ENDBLK
  5
41
330
3F
100
AcDbEntity
  8
0
100
AcDbBlockEnd
  0
BLOCK
  5
43
330
42
100
AcDbEntity
  8
0
100
AcDbBlockBegin
  2
DTL0001
 70
     0
 10
0.0
 20
0.0
 30
0.0
  3
DTL0001
  1

  0
POINT
  5
170
330
42
100
AcDbEntity
  8
0
 62
     0
100
AcDbPoint
 10
-1132.0
 20
770.0
 30
0.0
  0
POINT
  5
171
330
42
100
AcDbEntity
  8
0
 62
     0
100
AcDbPoint
 10
-1132.0
 20
776.0
 30
0.0
  0
POINT
  5
172
330
42
100
AcDbEntity
  8
0
 62
     0
100
AcDbPoint
 10
-1132.0
 20
782.0
 30
0.0
  0
POINT
  5
173
330
42
100
AcDbEntity
  8
0
 62
     0
100
AcDbPoint
 10
-1132.0
 20
24.0
 30
0.0
  0
POINT
  5
174
330
42
100
AcDbEntity
  8
0
 62
     0
100
AcDbPoint
 10
-1132.0
 20
30.0
 30
0.0
  0
POINT
  5
175
330
42
100
AcDbEntity
  8
0
 62
     0
100
AcDbPoint
 10
-571.5
 20
400.0
 30
0.0
  0
POINT
  5
176
330
42
100
AcDbEntity
  8
0
 62
     0
100
AcDbPoint
 10
-1132.0
 20
794.0
 30
0.0
  0
POINT
  5
177
330
42
100
AcDbEntity
  8
0
 62
     0
100
AcDbPoint
 10
-1132.0
 20
12.0
 30
0.0
  0
POINT
  5
178
330
42
100
AcDbEntity
  8
0
 62
     0
100
AcDbPoint
 10
-1132.0
 20
6.0
 30
0.0
  0
POINT
  5
179
330
42
100
AcDbEntity
  8
0
 62
     0
100
AcDbPoint
 10
-1132.0
 20
18.0
 30
0.0
  0
POINT
  5
17A
330
42
100
AcDbEntity
  8
0
 62
     0
100
AcDbPoint
 10
-1132.0
 20
788.0
 30
0.0
  0
POINT
  5
17B
330
42
100
AcDbEntity
  8
0
 62
     0
100
AcDbPoint
 10
3.149978637695312
 20
24.5
 30
0.0
  0
POINT
  5
17C
330
42
100
AcDbEntity
  8
0
 62
     0
100
AcDbPoint
 10
-76.77500915527344
 20
-12.375
 30
0.0
  0
POINT
  5
17D
330
42
100
AcDbEntity
  8
0
 62
     0
100
AcDbPoint
 10
-1153.0
 20
790.0
 30
0.0
  0
POINT
  5
17E
330
42
100
AcDbEntity
  8
0
 62
     0
100
AcDbPoint
 10
-1153.0
 20
780.0
 30
0.0
  0
POINT
  5
17F
330
42
100
AcDbEntity
  8
0
 62
     0
100
AcDbPoint
 10
0.0
 20
0.0
 30
0.0
  0
POINT
  5
180
330
42
100
AcDbEntity
  8
0
 62
     0
100
AcDbPoint
 10
-58.20000076293945
 20
30.0
 30
0.0
  0
POINT
  5
181
330
42
100
AcDbEntity
  8
0
 62
     0
100
AcDbPoint
 10
-81.30000305175781
 20
46.25
 30
0.0
  0
POINT
  5
182
330
42
100
AcDbEntity
  8
0
 62
     0
100
AcDbPoint
 10
-81.30000305175781
 20
40.0
 30
0.0
  0
POINT
  5
183
330
42
100
AcDbEntity
  8
0
 62
     0
100
AcDbPoint
 10
-82.44999694824219
 20
3.75
 30
0.0
  0
POINT
  5
184
330
42
100
AcDbEntity
  8
0
 62
     0
100
AcDbPoint
 10
-127.0
 20
2.5
 30
0.0
  0
POINT
  5
185
330
42
100
AcDbEntity
  8
0
 62
     0
100
AcDbPoint
 10
-127.0
 20
10.0
 30
0.0
  0
POINT
  5
186
330
42
100
AcDbEntity
  8
0
 62
     0
100
AcDbPoint
 10
-172.5
 20
2.5
 30
0.0
  0
POINT
  5
187
330
42
100
AcDbEntity
  8
0
 62
     0
100
AcDbPoint
 10
-172.5
 20
47.5
 30
0.0
  0
POINT
  5
188
330
42
100
AcDbEntity
  8
0
 62
     0
100
AcDbPoint
 10
-172.5
 20
32.5
 30
0.0
  0
POINT
  5
189
330
42
100
AcDbEntity
  8
0
 62
     0
100
AcDbPoint
 10
-172.5
 20
25.0
 30
0.0
  0
POINT
  5
18A
330
42
100
AcDbEntity
  8
0
 62
     0
100
AcDbPoint
 10
-172.5
 20
40.0
 30
0.0
  0
POINT
  5
18B
330
42
100
AcDbEntity
  8
0
 62
     0
100
AcDbPoint
 10
-172.5
 20
17.5
 30
0.0
  0
POINT
  5
18C
330
42
100
AcDbEntity
  8
0
 62
     0
100
AcDbPoint
 10
-75.69999694824219
 20
28.75
 30
0.0
  0
POINT
  5
18D
330
42
100
AcDbEntity
  8
0
 62
     0
100
AcDbPoint
 10
-12.19999980926514
 20
30.0
 30
0.0
  0
POINT
  5
18E
330
42
100
AcDbEntity
  8
0
 62
     0
100
AcDbPoint
 10
-3.799999952316284
 20
30.0
 30
0.0
  0
POINT
  5
18F
330
42
100
AcDbEntity
  8
0
 62
     0
100
AcDbPoint
 10
-98.0
 20
17.5
 30
0.0
  0
POINT
  5
190
330
42
100
AcDbEntity
  8
0
 62
     0
100
AcDbPoint
 10
-88.0
 20
17.5
 30
0.0
  0
POINT
  5
191
330
42
100
AcDbEntity
  8
0
 62
     0
100
AcDbPoint
 10
-81.4000015258789
 20
16.25
 30
0.0
  0
POINT
  5
192
330
42
100
AcDbEntity
  8
0
 62
     0
100
AcDbPoint
 10
-76.7750015258789
 20
-12.375
 30
0.0
  0
POINT
  5
193
330
42
100
AcDbEntity
  8
0
 62
     0
100
AcDbPoint
 10
-47.29998397827148
 20
790.5
 30
0.0
  0
POINT
  5
194
330
42
100
AcDbEntity
  8
0
 62
     0
100
AcDbPoint
 10
-24.79999732971191
 20
790.5
 30
0.0
  0
POINT
  5
195
330
42
100
AcDbEntity
  8
0
 62
     0
100
AcDbPoint
 10
-47.29998397827148
 20
785.5
 30
0.0
  0
POINT
  5
196
330
42
100
AcDbEntity
  8
0
 62
     0
100
AcDbPoint
 10
-47.29998397827148
 20
780.5
 30
0.0
  0
POINT
  5
197
330
42
100
AcDbEntity
  8
0
 62
     0
100
AcDbPoint
 10
-24.79999732971191
 20
785.5
 30
0.0
  0
POINT
  5
198
330
42
100
AcDbEntity
  8
0
 62
     0
100
AcDbPoint
 10
-24.79999732971191
 20
780.5
 30
0.0
  0
POINT
  5
199
330
42
100
AcDbEntity
  8
0
 62
     0
100
AcDbPoint
 10
-69.6999740600586
 20
790.5
 30
0.0
  0
POINT
  5
19A
330
42
100
AcDbEntity
  8
0
 62
     0
100
AcDbPoint
 10
-69.6999740600586
 20
785.5
 30
0.0
  0
POINT
  5
19B
330
42
100
AcDbEntity
  8
0
 62
     0
100
AcDbPoint
 10
-69.6999740600586
 20
780.5
 30
0.0
  0
POINT
  5
19C
330
42
100
AcDbEntity
  8
0
 62
     0
100
AcDbPoint
 10
-76.19998168945312
 20
790.5
 30
0.0
  0
POINT
  5
19D
330
42
100
AcDbEntity
  8
0
 62
     0
100
AcDbPoint
 10
-76.19998168945312
 20
785.5
 30
0.0
  0
POINT
  5
19E
330
42
100
AcDbEntity
  8
0
 62
     0
100
AcDbPoint
 10
-76.19998168945312
 20
780.5
 30
0.0
  0
POINT
  5
19F
330
42
100
AcDbEntity
  8
0
 62
     0
100
AcDbPoint
 10
-6.500002861022949
 20
790.5
 30
0.0
  0
POINT
  5
1A0
330
42
100
AcDbEntity
  8
0
 62
     0
100
AcDbPoint
 10
-6.500002861022949
 20
785.5
 30
0.0
  0
POINT
  5
1A1
330
42
100
AcDbEntity
  8
0
 62
     0
100
AcDbPoint
 10
-6.500002861022949
 20
780.5
 30
0.0
  0
POINT
  5
1A2
330
42
100
AcDbEntity
  8
0
 62
     0
100
AcDbPoint
 10
0.0
 20
0.0
 30
0.0
  0
MTEXT
  5
1A3
330
42
100
AcDbEntity
  8
0
 62
     0
100
AcDbMText
 10
-58.32000076770782
 20
28.42499995231628
 30
0.0
 40
3.150000095367432
 41
0.0
 71
     7
 72
     1
  1
{\W1;******-XXX}
 73
     1
 44
1.0
  0
MTEXT
  5
1A4
330
42
100
AcDbEntity
  8
0
 62
     0
100
AcDbMText
 10
-81.81428807973862
 20
44.89999997615814
 30
0.0
 40
2.700000047683716
 41
0.0
 71
     7
 72
     1
  1
{\W1;*}
 73
     1
 44
1.0
  0
MTEXT
  5
1A5
330
42
100
AcDbEntity
  8
0
 62
     0
100
AcDbMText
 10
-81.81428807973862
 20
38.64999997615814
 30
0.0
 40
2.700000047683716
 41
0.0
 71
     7
 72
     1
  1
{\W1;*}
 73
     1
 44
1.0
  0
MTEXT
  5
1A6
330
42
100
AcDbEntity
  8
0
 62
     0
100
AcDbMText
 10
-82.52999694943428
 20
2.700000047683716
 30
0.0
 40
2.099999904632568
 41
0.0
 71
     7
 72
     1
  1
{\W1;****/**/**}
 73
     1
 44
1.0
  0
MTEXT
  5
1A7
330
42
100
AcDbEntity
  8
0
 62
     0
100
AcDbMText
 10
-127.5142850279808
 20
1.149999976158142
 30
0.0
 40
2.700000047683716
 41
0.0
 71
     7
 72
     1
  1
{\W1;*}
 73
     1
 44
1.0
  0
MTEXT
  5
1A8
330
42
100
AcDbEntity
  8
0
 62
     0
100
AcDbMText
 10
-127.5142850279808
 20
8.649999976158142
 30
0.0
 40
2.700000047683716
 41
0.0
 71
     7
 72
     1
  1
{\W1;*}
 73
     1
 44
1.0
  0
MTEXT
  5
1A9
330
42
100
AcDbEntity
  8
0
 62
     0
100
AcDbMText
 10
-173.0142850279808
 20
1.149999976158142
 30
0.0
 40
2.700000047683716
 41
0.0
 71
     7
 72
     1
  1
{\W1;*}
 73
     1
 44
1.0
  0
MTEXT
  5
1AA
330
42
100
AcDbEntity
  8
0
 62
     0
100
AcDbMText
 10
-173.0142850279808
 20
46.14999997615814
 30
0.0
 40
2.700000047683716
 41
0.0
 71
     7
 72
     1
  1
{\W1;*}
 73
     1
 44
1.0
  0
MTEXT
  5
1AB
330
42
100
AcDbEntity
  8
0
 62
     0
100
AcDbMText
 10
-173.0142850279808
 20
31.14999997615814
 30
0.0
 40
2.700000047683716
 41
0.0
 71
     7
 72
     1
  1
{\W1;*}
 73
     1
 44
1.0
  0
MTEXT
  5
1AC
330
42
100
AcDbEntity
  8
0
 62
     0
100
AcDbMText
 10
-173.0142850279808
 20
23.64999997615814
 30
0.0
 40
2.700000047683716
 41
0.0
 71
     7
 72
     1
  1
{\W1;*}
 73
     1
 44
1.0
  0
MTEXT
  5
1AD
330
42
100
AcDbEntity
  8
0
 62
     0
100
AcDbMText
 10
-173.0142850279808
 20
38.64999997615814
 30
0.0
 40
2.700000047683716
 41
0.0
 71
     7
 72
     1
  1
{\W1;*}
 73
     1
 44
1.0
  0
MTEXT
  5
1AE
330
42
100
AcDbEntity
  8
0
 62
     0
100
AcDbMText
 10
-173.0142850279808
 20
16.14999997615814
 30
0.0
 40
2.700000047683716
 41
0.0
 71
     7
 72
     1
  1
{\W1;*}
 73
     1
 44
1.0
  0
MTEXT
  5
1AF
330
42
100
AcDbEntity
  8
0
 62
     0
100
AcDbMText
 10
-75.80285395383835
 20
27.39999997615814
 30
0.0
 40
2.700000047683716
 41
0.0
 71
     7
 72
     1
  1
{\W0.833333;無　Ｎ}
 73
     1
 44
1.0
  0
MTEXT
  5
1B0
330
42
100
AcDbEntity
  8
0
 62
     0
100
AcDbMText
 10
-12.71428483724594
 20
28.64999997615814
 30
0.0
 40
2.700000047683716
 41
0.0
 71
     7
 72
     1
  1
{\W1;1}
 73
     1
 44
1.0
  0
MTEXT
  5
1B1
330
42
100
AcDbEntity
  8
0
 62
     0
100
AcDbMText
 10
-4.314284980297089
 20
28.64999997615814
 30
0.0
 40
2.700000047683716
 41
0.0
 71
     7
 72
     1
  1
{\W1;1}
 73
     1
 44
1.0
  0
MTEXT
  5
1B2
330
42
100
AcDbEntity
  8
0
 62
     0
100
AcDbMText
 10
-98.5142850279808
 20
16.14999997615814
 30
0.0
 40
2.700000047683716
 41
0.0
 71
     7
 72
     1
  1
{\W1;1}
 73
     1
 44
1.0
  0
MTEXT
  5
1B3
330
42
100
AcDbEntity
  8
0
 62
     0
100
AcDbMText
 10
-88.5142850279808
 20
16.14999997615814
 30
0.0
 40
2.700000047683716
 41
0.0
 71
     7
 72
     1
  1
{\W1;1}
 73
     1
 44
1.0
  0
MTEXT
  5
1B4
330
42
100
AcDbEntity
  8
0
 62
     0
100
AcDbMText
 10
-81.480001527071
 20
15.20000004768372
 30
0.0
 40
2.099999904632568
 41
0.0
 71
     7
 72
     1
  1
{\W1;*********}
 73
     1
 44
1.0
  0
MTEXT
  5
1B5
330
42
100
AcDbEntity
  8
0
 62
     0
100
AcDbMText
 10
-76.89500153064728
 20
-13.95000004768372
 30
0.0
 40
3.150000095367432
 41
0.0
 71
     7
 72
     1
  1
{\W1;******-XXX}
 73
     1
 44
1.0
  0
MTEXT
  5
1B6
330
42
100
AcDbEntity
  8
0
 62
     0
100
AcDbMText
 10
-172.6200000047684
 20
-13.95000004768372
 30
0.0
 40
3.150000095367432
 41
0.0
 71
     7
 72
     1
  1
{\W1;[2D:CADAM(1) 3D:***()]}
 73
     1
 44
1.0
  0
MTEXT
  5
1B7
330
42
100
AcDbEntity
  8
0
 62
     0
100
AcDbMText
 10
-76.59998169541359
 20
789.4500000476837
 30
0.0
 40
2.099999904632568
 41
0.0
 71
     7
 72
     1
  1
{\W1;Z}
 73
     1
 44
1.0
  0
MTEXT
  5
1B8
330
42
100
AcDbEntity
  8
0
 62
     0
100
AcDbMText
 10
-70.09997406601906
 20
789.5500000119209
 30
0.0
 40
1.899999976158142
 41
0.0
 71
     7
 72
     1
  1
{\W1;*}
 73
     1
 44
1.0
  0
MTEXT
  5
1B9
330
42
100
AcDbEntity
  8
0
 62
     0
100
AcDbMText
 10
-47.69998398423195
 20
789.4500000476837
 30
0.0
 40
2.099999904632568
 41
0.0
 71
     7
 72
     1
  1
{\W1;*}
 73
     1
 44
1.0
  0
MTEXT
  5
1BA
330
42
100
AcDbEntity
  8
0
 62
     0
100
AcDbMText
 10
-6.900002866983414
 20
789.4500000476837
 30
0.0
 40
2.099999904632568
 41
0.0
 71
     7
 72
     1
  1
{\W1;*}
 73
     1
 44
1.0
  0
MTEXT
  5
1BB
330
42
100
AcDbEntity
  8
0
 62
     0
100
AcDbMText
 10
-25.19999733567238
 20
789.4500000476837
 30
0.0
 40
2.099999904632568
 41
0.0
 71
     7
 72
     1
  1
{\W1;*}
 73
     1
 44
1.0
  0
MTEXT
  5
1BC
330
42
100
AcDbEntity
  8
0
 62
     0
100
AcDbMText
 10
-76.59998169541359
 20
784.4500000476837
 30
0.0
 40
2.099999904632568
 41
0.0
 71
     7
 72
     1
  1
{\W1;*}
 73
     1
 44
1.0
  0
MTEXT
  5
1BD
330
42
100
AcDbEntity
  8
0
 62
     0
100
AcDbMText
 10
-70.09997406601906
 20
784.5500000119209
 30
0.0
 40
1.899999976158142
 41
0.0
 71
     7
 72
     1
  1
{\W1;*}
 73
     1
 44
1.0
  0
MTEXT
  5
1BE
330
42
100
AcDbEntity
  8
0
 62
     0
100
AcDbMText
 10
-47.69998398423195
 20
784.4500000476837
 30
0.0
 40
2.099999904632568
 41
0.0
 71
     7
 72
     1
  1
{\W1;*}
 73
     1
 44
1.0
  0
MTEXT
  5
1BF
330
42
100
AcDbEntity
  8
0
 62
     0
100
AcDbMText
 10
-6.900002866983414
 20
784.4500000476837
 30
0.0
 40
2.099999904632568
 41
0.0
 71
     7
 72
     1
  1
{\W1;*}
 73
     1
 44
1.0
  0
MTEXT
  5
1C0
330
42
100
AcDbEntity
  8
0
 62
     0
100
AcDbMText
 10
-25.19999733567238
 20
784.4500000476837
 30
0.0
 40
2.099999904632568
 41
0.0
 71
     7
 72
     1
  1
{\W1;*}
 73
     1
 44
1.0
  0
MTEXT
  5
1C1
330
42
100
AcDbEntity
  8
0
 62
     0
100
AcDbMText
 10
-76.59998169541359
 20
779.4500000476837
 30
0.0
 40
2.099999904632568
 41
0.0
 71
     7
 72
     1
  1
{\W1;*}
 73
     1
 44
1.0
  0
MTEXT
  5
1C2
330
42
100
AcDbEntity
  8
0
 62
     0
100
AcDbMText
 10
-70.09997406601906
 20
779.5500000119209
 30
0.0
 40
1.899999976158142
 41
0.0
 71
     7
 72
     1
  1
{\W1;*}
 73
     1
 44
1.0
  0
MTEXT
  5
1C3
330
42
100
AcDbEntity
  8
0
 62
     0
100
AcDbMText
 10
-47.69998398423195
 20
779.4500000476837
 30
0.0
 40
2.099999904632568
 41
0.0
 71
     7
 72
     1
  1
{\W1;*}
 73
     1
 44
1.0
  0
MTEXT
  5
1C4
330
42
100
AcDbEntity
  8
0
 62
     0
100
AcDbMText
 10
-6.900002866983414
 20
779.4500000476837
 30
0.0
 40
2.099999904632568
 41
0.0
 71
     7
 72
     1
  1
{\W1;*}
 73
     1
 44
1.0
  0
MTEXT
  5
1C5
330
42
100
AcDbEntity
  8
0
 62
     0
100
AcDbMText
 10
-25.19999733567238
 20
779.4500000476837
 30
0.0
 40
2.099999904632568
 41
0.0
 71
     7
 72
     1
  1
{\W1;*}
 73
     1
 44
1.0
  0
INSERT
  5
1C6
330
42
100
AcDbEntity
  8
0
 62
     0
100
AcDbBlockReference
  2
USER0001
 10
0.0
 20
0.0
 30
0.0
  0
ENDBLK
  5
44
330
42
100
AcDbEntity
  8
0
100
AcDbBlockEnd
  0
ENDSEC
  0
SECTION
  2
ENTITIES
  0
POINT
  5
1C7
330
1F
100
AcDbEntity
  8
0
 62
     7
100
AcDbPoint
 10
-471.5
 20
300.0
 30
0.0
  0
POINT
  5
1C8
330
1F
100
AcDbEntity
  8
0
 62
     7
100
AcDbPoint
 10
-216.0923379174852
 20
30.67309063087518
 30
0.0
  0
POINT
  5
1C9
330
1F
100
AcDbEntity
  8
0
 62
     7
100
AcDbPoint
 10
-216.0923379174852
 20
498.860510805501
 30
0.0
  0
POINT
  5
1CA
330
1F
100
AcDbEntity
  8
0
 62
     7
100
AcDbPoint
 10
-216.0923379174852
 20
498.860510805501
 30
0.0
  0
POINT
  5
1CB
330
1F
100
AcDbEntity
  8
0
 62
     7
100
AcDbPoint
 10
-216.0923379174852
 20
498.860510805501
 30
0.0
  0
POINT
  5
1CC
330
1F
100
AcDbEntity
  8
0
 62
     7
100
AcDbPoint
 10
-813.347921557644
 20
498.9190153584484
 30
0.0
  0
POINT
  5
1CD
330
1F
100
AcDbEntity
  8
0
 62
     7
100
AcDbPoint
 10
-640.347921557644
 20
498.9190153584484
 30
0.0
  0
POINT
  5
1CE
330
1F
100
AcDbEntity
  8
0
 62
     7
100
AcDbPoint
 10
-726.847921557644
 20
498.9190153584484
 30
0.0
  0
POINT
  5
1CF
330
1F
100
AcDbEntity
  8
0
 62
     7
100
AcDbPoint
 10
-216.0923379174852
 20
628.860510805501
 30
0.0
  0
LINE
  5
1D0
330
1F
100
AcDbEntity
  8
0
  6
Continuous
 62
     7
370
    70
100
AcDbLine
 10
100.0
 20
700.0
 30
0.0
 11
100.0
 21
-100.0
 31
0.0
  0
LINE
  5
1D1
330
1F
100
AcDbEntity
  8
0
  6
Continuous
 62
     7
370
    70
100
AcDbLine
 10
-1043.0
 20
-100.0
 30
0.0
 11
100.0
 21
-100.0
 31
0.0
  0
LINE
  5
1D2
330
1F
100
AcDbEntity
  8
0
  6
Continuous
 62
     7
370
    70
100
AcDbLine
 10
-1043.0
 20
700.0
 30
0.0
 11
100.0
 21
700.0
 31
0.0
  0
LINE
  5
1D3
330
1F
100
AcDbEntity
  8
0
  6
Continuous
 62
     7
370
    70
100
AcDbLine
 10
-1043.0
 20
700.0
 30
0.0
 11
-1043.0
 21
-100.0
 31
0.0
  0
LINE
  5
1D4
330
1F
100
AcDbEntity
  8
0
  6
Continuous
 62
     7
370
    50
100
AcDbLine
 10
-242.2922654381467
 20
255.1730906308752
 30
0.0
 11
-247.7771739701467
 21
255.1730906308752
 31
0.0
  0
LINE
  5
1D5
330
1F
100
AcDbEntity
  8
0
  6
Continuous
 62
     7
370
    50
100
AcDbLine
 10
-184.4073569061467
 20
255.1730906308752
 30
0.0
 11
-189.8922654381466
 21
255.1730906308752
 31
0.0
  0
LINE
  5
1D6
330
1F
100
AcDbEntity
  8
0
  6
PHANTOM
 62
     7
370
    30
100
AcDbLine
 10
-302.0923379174852
 20
79.67309063087544
 30
0.0
 11
-302.0923379174852
 21
-18.32690936912456
 31
0.0
  0
LINE
  5
1D7
330
1F
100
AcDbEntity
  8
0
  6
PHANTOM
 62
     7
370
    30
100
AcDbLine
 10
-297.0923379174852
 20
84.67309063087541
 30
0.0
 11
-135.0923379174852
 21
84.67309063087541
 31
0.0
  0
LINE
  5
1D8
330
1F
100
AcDbEntity
  8
0
  6
PHANTOM
 62
     7
370
    30
100
AcDbLine
 10
-297.0923379174852
 20
-23.32690936912459
 30
0.0
 11
-135.0923379174852
 21
-23.32690936912459
 31
0.0
  0
LINE
  5
1D9
330
1F
100
AcDbEntity
  8
0
  6
PHANTOM
 62
     7
370
    30
100
AcDbLine
 10
-130.0923379174852
 20
79.67309063087544
 30
0.0
 11
-130.0923379174852
 21
-18.32690936912456
 31
0.0
  0
LINE
  5
1DA
330
1F
100
AcDbEntity
  8
0
  6
Continuous
 62
     7
370
    50
100
AcDbLine
 10
-215.0922654381467
 20
229.4230906308752
 30
0.0
 11
-215.0922654381467
 21
231.9230906308752
 31
0.0
  0
LINE
  5
1DB
330
1F
100
AcDbEntity
  8
0
  6
CENTER
 62
     7
370
    30
100
AcDbLine
 10
-216.0923379174852
 20
-35.84314820128532
 30
0.0
 11
-216.0923379174852
 21
258.6328720584754
 31
0.0
  0
LINE
  5
1DC
330
1F
100
AcDbEntity
  8
0
  6
Continuous
 62
     7
370
    50
100
AcDbLine
 10
-172.6234545451464
 20
201.8960091508756
 30
0.0
 11
-183.4278998631463
 21
254.3747435518753
 31
0.0
  0
LINE
  5
1DD
330
1F
100
AcDbEntity
  8
0
  6
Continuous
 62
     7
370
    50
100
AcDbLine
 10
-299.6627218107018
 20
-39.32690936912482
 30
0.0
 11
-132.52180874514
 21
-39.32690936912482
 31
0.0
  0
LINE
  5
1DE
330
1F
100
AcDbEntity
  8
0
  6
Continuous
 62
     7
370
    50
100
AcDbLine
 10
-289.9812349030719
 20
148.3029073185072
 30
0.0
 11
-310.4282827438945
 21
129.5837790131908
 31
0.0
  0
LINE
  5
1DF
330
1F
100
AcDbEntity
  8
0
  6
CENTER
 62
     7
370
    30
100
AcDbLine
 10
-316.4045105133044
 20
30.67309063087518
 30
0.0
 11
-118.1410374594121
 21
30.67309063087518
 31
0.0
  0
LINE
  5
1E0
330
1F
100
AcDbEntity
  8
0
  6
Continuous
 62
     7
370
    50
100
AcDbLine
 10
-235.8922654381469
 20
252.1730906308752
 30
0.0
 11
-235.8922654381469
 21
244.1730906308751
 31
0.0
  0
LINE
  5
1E1
330
1F
100
AcDbEntity
  8
0
  6
CENTER
 62
     7
370
    30
100
AcDbLine
 10
-222.1122676976258
 20
228.6730906804513
 30
0.0
 11
-209.9934360631049
 21
228.6730944855068
 31
0.0
  0
LINE
  5
1E2
330
1F
100
AcDbEntity
  8
0
  6
Continuous
 62
     7
370
    50
100
AcDbLine
 10
-196.2922654381467
 20
244.1730906308751
 30
0.0
 11
-196.2922654381467
 21
252.1730906308752
 31
0.0
  0
LINE
  5
1E3
330
1F
100
AcDbEntity
  8
0
  6
Continuous
 62
     7
370
    50
100
AcDbLine
 10
-197.2922654381467
 20
253.1730906308752
 30
0.0
 11
-234.8922654381466
 21
253.1730906308752
 31
0.0
  0
LINE
  5
1E4
330
1F
100
AcDbEntity
  8
0
  6
CENTER
 62
     7
370
    30
100
AcDbLine
 10
-222.1122689535408
 20
232.6730897267773
 30
0.0
 11
-209.9934373190199
 21
232.6730935318328
 31
0.0
  0
LINE
  5
1E5
330
1F
100
AcDbEntity
  8
0
  6
Continuous
 62
     7
370
    50
100
AcDbLine
 10
-241.2922654381467
 20
244.1730906308751
 30
0.0
 11
-241.2922654381467
 21
254.1730906308751
 31
0.0
  0
LINE
  5
1E6
330
1F
100
AcDbEntity
  8
0
  6
Continuous
 62
     7
370
    50
100
AcDbLine
 10
-110.6905466608497
 20
-20.04644474024224
 30
0.0
 11
-99.56088996764649
 21
69.29996593737489
 31
0.0
  0
LINE
  5
1E7
330
1F
100
AcDbEntity
  8
0
  6
Continuous
 62
     7
370
    50
100
AcDbLine
 10
-248.7566310136467
 20
254.374743551875
 30
0.0
 11
-259.5610763311466
 21
201.8960091508752
 31
0.0
  0
LINE
  5
1E8
330
1F
100
AcDbEntity
  8
0
  6
Continuous
 62
     7
370
    50
100
AcDbLine
 10
-217.0922654381467
 20
231.9230906308752
 30
0.0
 11
-217.0922654381467
 21
229.4230906308752
 31
0.0
  0
LINE
  5
1E9
330
1F
100
AcDbEntity
  8
0
  6
Continuous
 62
     7
370
    50
100
AcDbLine
 10
-190.8922654381466
 20
254.1730906308751
 30
0.0
 11
-190.8922654381466
 21
244.1730906308751
 31
0.0
  0
LINE
  5
1EA
330
1F
100
AcDbEntity
  8
0
  6
CENTER
 62
     7
370
    30
100
AcDbLine
 10
-238.5923986121826
 20
238.6730906308755
 30
0.0
 11
-238.5923986121826
 21
258.1730906308752
 31
0.0
  0
LINE
  5
1EB
330
1F
100
AcDbEntity
  8
0
  6
CENTER
 62
     7
370
    30
100
AcDbLine
 10
-244.2923982307128
 20
244.1730902494058
 30
0.0
 11
-187.8922776042576
 21
244.1730902494058
 31
0.0
  0
LINE
  5
1EC
330
1F
100
AcDbEntity
  8
0
  6
CENTER
 62
     7
370
    30
100
AcDbLine
 10
-193.5922772227881
 20
238.6730906308755
 30
0.0
 11
-193.5922772227881
 21
258.1730906308752
 31
0.0
  0
LINE
  5
1ED
330
1F
100
AcDbEntity
  8
0
  6
Continuous
 62
     7
370
    50
100
AcDbLine
 10
-332.6236409090988
 20
69.29996593699255
 30
0.0
 11
-321.4939842204479
 21
-20.04644470006587
 31
0.0
  0
LINE
  5
1EE
330
1F
100
AcDbEntity
  8
0
  6
Continuous
 62
     7
370
    50
100
AcDbLine
 10
-121.7562481332998
 20
129.583779014015
 30
0.0
 11
-142.203296054651
 21
148.3029073925971
 31
0.0
  0
LINE
  5
1EF
330
1F
100
AcDbEntity
  8
0
  6
Continuous
 62
     7
370
    50
100
AcDbLine
 10
-332.8604980181852
 20
283.5465726511828
 30
0.0
 11
-99.32403283664678
 21
283.5465726511828
 31
0.0
  0
LINE
  5
1F0
330
1F
100
AcDbEntity
  8
0
  6
Continuous
 62
     7
370
    50
100
AcDbLine
 10
-333.1604980401468
 20
283.2465726511828
 30
0.0
 11
-333.1604980401468
 21
282.3465726731444
 31
0.0
  0
LINE
  5
1F1
330
1F
100
AcDbEntity
  8
0
  6
Continuous
 62
     7
370
    50
100
AcDbLine
 10
-99.02403283664682
 20
283.2465726292214
 30
0.0
 11
-99.02403283664682
 21
282.3465726731443
 31
0.0
  0
LINE
  5
1F2
330
1F
100
AcDbEntity
  8
0
  6
Continuous
 62
     7
370
    50
100
AcDbLine
 10
-332.8604980401468
 20
282.0465726511828
 30
0.0
 11
-99.32403283664678
 21
282.0465726511828
 31
0.0
  0
LINE
  5
1F3
330
1F
100
AcDbEntity
  8
0
  6
Continuous
 62
     7
370
    50
100
AcDbLine
 10
-333.1604980401469
 20
283.2465726511829
 30
0.0
 11
-332.8604980181854
 21
283.5465726511829
 31
0.0
  0
LINE
  5
1F4
330
1F
100
AcDbEntity
  8
0
  6
Continuous
 62
     7
370
    50
100
AcDbLine
 10
-332.8604980401469
 20
282.0465726511828
 30
0.0
 11
-333.1604980401468
 21
282.3465726731443
 31
0.0
  0
LINE
  5
1F5
330
1F
100
AcDbEntity
  8
0
  6
Continuous
 62
     7
370
    50
100
AcDbLine
 10
-99.32403283664677
 20
283.5465726511827
 30
0.0
 11
-99.02403283664684
 21
283.2465726292212
 31
0.0
  0
LINE
  5
1F6
330
1F
100
AcDbEntity
  8
0
  6
Continuous
 62
     7
370
    50
100
AcDbLine
 10
-99.32403283664699
 20
282.0465726511832
 30
0.0
 11
-99.024032836647
 21
282.3465726731447
 31
0.0
  0
LINE
  5
1F7
330
1F
100
AcDbEntity
  8
0
  6
Continuous
 62
     7
370
    50
100
AcDbLine
 10
-623.5975250095923
 20
448.3595886058444
 30
0.0
 11
-611.7547565268757
 21
540.1410443468988
 31
0.0
  0
LINE
  5
1F8
330
1F
100
AcDbEntity
  8
0
  6
Continuous
 62
     7
370
    50
100
AcDbLine
 10
-837.3541629151073
 20
568.3300386419481
 30
0.0
 11
-834.5072935468775
 21
574.2094427719879
 31
0.0
  0
LINE
  5
1F9
330
1F
100
AcDbEntity
  8
0
  6
Continuous
 62
     7
370
    50
100
AcDbLine
 10
-830.0983179251912
 20
448.3595872069383
 30
0.0
 11
-841.9410868324977
 21
540.141046238565
 31
0.0
  0
LINE
  5
1FA
330
1F
100
AcDbEntity
  8
0
  6
Continuous
 62
     7
370
    50
100
AcDbLine
 10
-664.1905192268073
 20
602.4190153584484
 30
0.0
 11
-789.5053238884807
 21
602.4190153584484
 31
0.0
  0
LINE
  5
1FB
330
1F
100
AcDbEntity
  8
0
  6
Continuous
 62
     7
370
    50
100
AcDbLine
 10
-616.3416802001807
 20
568.3300386419482
 30
0.0
 11
-619.1885495684105
 21
574.2094427719879
 31
0.0
  0
LINE
  5
1FC
330
1F
100
AcDbEntity
  8
0
  6
Continuous
 62
     7
370
    50
100
AcDbLine
 10
-743.847921557644
 20
590.4190153584484
 30
0.0
 11
-745.847921557644
 21
590.4190153584484
 31
0.0
  0
LINE
  5
1FD
330
1F
100
AcDbEntity
  8
0
  6
CENTER
 62
     7
370
    30
100
AcDbLine
 10
-744.847921557644
 20
580.4190153584484
 30
0.0
 11
-744.847921557644
 21
596.4190153584484
 31
0.0
  0
LINE
  5
1FE
330
1F
100
AcDbEntity
  8
0
  6
Continuous
 62
     7
370
    50
100
AcDbLine
 10
-743.847921557644
 20
586.4190153584484
 30
0.0
 11
-745.847921557644
 21
586.4190153584484
 31
0.0
  0
LINE
  5
1FF
330
1F
100
AcDbEntity
  8
0
  6
CENTER
 62
     7
370
    30
100
AcDbLine
 10
-703.0391146835171
 20
588.4190153584484
 30
0.0
 11
-754.8181481897083
 21
588.4190153584484
 31
0.0
  0
LINE
  5
200
330
1F
100
AcDbEntity
  8
0
  6
CENTER
 62
     7
370
    30
100
AcDbLine
 10
-708.847921557644
 20
580.4190153584484
 30
0.0
 11
-708.847921557644
 21
596.4190153584484
 31
0.0
  0
LINE
  5
201
330
1F
100
AcDbEntity
  8
0
  6
CENTER
 62
     7
370
    30
100
AcDbLine
 10
-767.847921557644
 20
577.4190153584484
 30
0.0
 11
-767.847921557644
 21
597.4190153584484
 31
0.0
  0
LINE
  5
202
330
1F
100
AcDbEntity
  8
0
  6
CENTER
 62
     7
370
    30
100
AcDbLine
 10
-685.847921557644
 20
577.4190153584484
 30
0.0
 11
-685.847921557644
 21
597.4190153584484
 31
0.0
  0
LINE
  5
203
330
1F
100
AcDbEntity
  8
0
  6
CENTER
 62
     7
370
    30
100
AcDbLine
 10
-679.0604374375439
 20
587.4190153584484
 30
0.0
 11
-777.847921557644
 21
587.4190153584484
 31
0.0
  0
LINE
  5
204
330
1F
100
AcDbEntity
  8
0
  6
PHANTOM
 62
     7
370
    30
100
AcDbLine
 10
-648.347921557644
 20
553.4190153584484
 30
0.0
 11
-805.347921557644
 21
553.4190153584484
 31
0.0
  0
LINE
  5
205
330
1F
100
AcDbEntity
  8
0
  6
PHANTOM
 62
     7
370
    30
100
AcDbLine
 10
-640.347921557644
 20
452.4190153584483
 30
0.0
 11
-640.347921557644
 21
545.4190153584484
 31
0.0
  0
LINE
  5
206
330
1F
100
AcDbEntity
  8
0
  6
PHANTOM
 62
     7
370
    30
100
AcDbLine
 10
-813.347921557644
 20
452.4190153584483
 30
0.0
 11
-813.347921557644
 21
545.4190153584484
 31
0.0
  0
LINE
  5
207
330
1F
100
AcDbEntity
  8
0
  6
Continuous
 62
     7
370
    50
100
AcDbLine
 10
-643.4330823422733
 20
430.9190153584483
 30
0.0
 11
-810.2627607730146
 21
430.9190153584483
 31
0.0
  0
LINE
  5
208
330
1F
100
AcDbEntity
  8
0
  6
PHANTOM
 62
     7
370
    30
100
AcDbLine
 10
-648.347921557644
 20
444.4190153584483
 30
0.0
 11
-805.347921557644
 21
444.4190153584483
 31
0.0
  0
LINE
  5
209
330
1F
100
AcDbEntity
  8
0
  6
CENTER
 62
     7
370
    30
100
AcDbLine
 10
-726.847921557644
 20
575.0608669690674
 30
0.0
 11
-726.847921557644
 21
434.8602681666723
 31
0.0
  0
LINE
  5
20A
330
1F
100
AcDbEntity
  8
0
  6
CENTER
 62
     7
370
    30
100
AcDbLine
 10
-631.0364631618074
 20
498.9190153584484
 30
0.0
 11
-828.6114314020077
 21
498.9190153584484
 31
0.0
  0
LINE
  5
20B
330
1F
100
AcDbEntity
  8
0
  6
Continuous
 62
     7
370
    50
100
AcDbLine
 10
-564.847921557644
 20
602.4190153584484
 30
0.0
 11
-562.147921557644
 21
602.4190153584484
 31
0.0
  0
LINE
  5
20C
330
1F
100
AcDbEntity
  8
0
  6
CENTER
 62
     7
370
    30
100
AcDbLine
 10
-726.847921557644
 20
625.4029125751513
 30
0.0
 11
-726.847921557644
 21
641.0175021631791
 31
0.0
  0
LINE
  5
20D
330
1F
100
AcDbEntity
  8
0
  6
Continuous
 62
     7
370
    50
100
AcDbLine
 10
-566.847921557644
 20
600.4190153584484
 30
0.0
 11
-566.847921557644
 21
432.9190153584483
 31
0.0
  0
LINE
  5
20E
330
1F
100
AcDbEntity
  8
0
  6
Continuous
 62
     7
370
    50
100
AcDbLine
 10
-564.847921557644
 20
430.9190153584483
 30
0.0
 11
-562.147921557644
 21
430.9190153584483
 31
0.0
  0
LINE
  5
20F
330
1F
100
AcDbEntity
  8
0
  6
Continuous
 62
     7
370
    50
100
AcDbLine
 10
-562.1479215576444
 20
430.9190153584485
 30
0.0
 11
-561.8479215576444
 21
431.21901538041
 31
0.0
  0
LINE
  5
210
330
1F
100
AcDbEntity
  8
0
  6
Continuous
 62
     7
370
    50
100
AcDbLine
 10
-611.6436498585774
 20
633.9190153584484
 30
0.0
 11
-842.0521932567106
 21
633.9190153584484
 31
0.0
  0
LINE
  5
211
330
1F
100
AcDbEntity
  8
0
  6
Continuous
 62
     7
370
    50
100
AcDbLine
 10
-561.847921557644
 20
602.1190153364868
 30
0.0
 11
-561.847921557644
 21
431.2190153804099
 31
0.0
  0
LINE
  5
212
330
1F
100
AcDbEntity
  8
0
  6
Continuous
 62
     7
370
    50
100
AcDbLine
 10
-613.3436498585775
 20
628.9190153584484
 30
0.0
 11
-840.3521932567105
 21
628.9190153584484
 31
0.0
  0
LINE
  5
213
330
1F
100
AcDbEntity
  8
0
  6
Continuous
 62
     7
370
    50
100
AcDbLine
 10
-562.147921557644
 20
602.4190153584483
 30
0.0
 11
-561.8479215576441
 21
602.1190153364868
 31
0.0
  0
LINE
  5
214
330
1F
100
AcDbEntity
  8
0
  6
Continuous
 62
     7
370
    50
100
AcDbLine
 10
-842.3521932567105
 20
630.9190153584484
 30
0.0
 11
-842.3521932567105
 21
633.6190153364869
 31
0.0
  0
LINE
  5
215
330
1F
100
AcDbEntity
  8
0
  6
Continuous
 62
     7
370
    50
100
AcDbLine
 10
-611.3436498585775
 20
630.9190153584484
 30
0.0
 11
-611.3436498585775
 21
633.6190153364869
 31
0.0
  0
LINE
  5
216
330
1F
100
AcDbEntity
  8
0
  6
Continuous
 62
     7
370
    50
100
AcDbLine
 10
-842.0521932567106
 20
633.9190153584486
 30
0.0
 11
-842.3521932567106
 21
633.6190153364871
 31
0.0
  0
LINE
  5
217
330
1F
100
AcDbEntity
  8
0
  6
Continuous
 62
     7
370
    50
100
AcDbLine
 10
-611.6436498585778
 20
633.9190153584487
 30
0.0
 11
-611.3436498585778
 21
633.6190153364872
 31
0.0
  0
LINE
  5
218
330
1F
100
AcDbEntity
  8
0
  6
Continuous
 62
     7
370
    50
100
AcDbLine
 10
-216.5923379174852
 20
628.860510805501
 30
0.0
 11
-216.5923379174852
 21
633.860510805501
 31
0.0
  0
LINE
  5
219
330
1F
100
AcDbEntity
  8
0
  6
Continuous
 62
     7
370
    50
100
AcDbLine
 10
-216.5923379174852
 20
633.860510805501
 30
0.0
 11
-331.4136187224464
 21
633.860510805501
 31
0.0
  0
LINE
  5
21A
330
1F
100
AcDbEntity
  8
0
  6
Continuous
 62
     7
370
    50
100
AcDbLine
 10
-215.5923379174852
 20
628.860510805501
 30
0.0
 11
-215.5923379174852
 21
633.860510805501
 31
0.0
  0
LINE
  5
21B
330
1F
100
AcDbEntity
  8
0
  6
CENTER
 62
     7
370
    30
100
AcDbLine
 10
-305.1323379174852
 20
498.860510805501
 30
0.0
 11
-127.0523379174852
 21
498.860510805501
 31
0.0
  0
LINE
  5
21C
330
1F
100
AcDbEntity
  8
0
  6
CENTER
 62
     7
370
    30
100
AcDbLine
 10
-216.0923379174852
 20
587.900510805501
 30
0.0
 11
-216.0923379174852
 21
409.820510805501
 31
0.0
  0
LINE
  5
21D
330
1F
100
AcDbEntity
  8
0
  6
Continuous
 62
     7
370
    50
100
AcDbLine
 10
-216.5923379174852
 20
628.860510805501
 30
0.0
 11
-329.7136187224464
 21
628.860510805501
 31
0.0
  0
LINE
  5
21E
330
1F
100
AcDbEntity
  8
0
  6
Continuous
 62
     7
370
    50
100
AcDbLine
 10
-54.09233791748522
 20
602.4190153584484
 30
0.0
 11
-51.39233791748522
 21
602.4190153584484
 31
0.0
  0
LINE
  5
21F
330
1F
100
AcDbEntity
  8
0
  6
CENTER
 62
     7
370
    30
100
AcDbLine
 10
-216.2093470233799
 20
625.3444080222039
 30
0.0
 11
-216.2093470233799
 21
640.9589976102317
 31
0.0
  0
LINE
  5
220
330
1F
100
AcDbEntity
  8
0
  6
Continuous
 62
     7
370
    50
100
AcDbLine
 10
-56.09233791748522
 20
600.4190153584484
 30
0.0
 11
-56.09233791748522
 21
432.9190153584483
 31
0.0
  0
LINE
  5
221
330
1F
100
AcDbEntity
  8
0
  6
Continuous
 62
     7
370
    50
100
AcDbLine
 10
-54.09233791748522
 20
430.9190153584483
 30
0.0
 11
-51.39233791748522
 21
430.9190153584483
 31
0.0
  0
LINE
  5
222
330
1F
100
AcDbEntity
  8
0
  6
Continuous
 62
     7
370
    50
100
AcDbLine
 10
-51.39233791748526
 20
430.9190153584483
 30
0.0
 11
-51.0923379174852
 21
431.2190153804099
 31
0.0
  0
LINE
  5
223
330
1F
100
AcDbEntity
  8
0
  6
Continuous
 62
     7
370
    50
100
AcDbLine
 10
-101.0050753243133
 20
633.860510805501
 30
0.0
 11
-215.5923379174852
 21
633.860510805501
 31
0.0
  0
LINE
  5
224
330
1F
100
AcDbEntity
  8
0
  6
Continuous
 62
     7
370
    50
100
AcDbLine
 10
-51.09233791748522
 20
602.1190153364868
 30
0.0
 11
-51.09233791748522
 21
431.2190153804099
 31
0.0
  0
LINE
  5
225
330
1F
100
AcDbEntity
  8
0
  6
Continuous
 62
     7
370
    50
100
AcDbLine
 10
-102.7050753243133
 20
628.860510805501
 30
0.0
 11
-215.5923379174852
 21
628.860510805501
 31
0.0
  0
LINE
  5
226
330
1F
100
AcDbEntity
  8
0
  6
Continuous
 62
     7
370
    50
100
AcDbLine
 10
-51.39233791748529
 20
602.4190153584484
 30
0.0
 11
-51.09233791748528
 21
602.1190153364869
 31
0.0
  0
LINE
  5
227
330
1F
100
AcDbEntity
  8
0
  6
Continuous
 62
     7
370
    50
100
AcDbLine
 10
-331.7136187224464
 20
630.860510805501
 30
0.0
 11
-331.7136187224464
 21
633.5605107835395
 31
0.0
  0
LINE
  5
228
330
1F
100
AcDbEntity
  8
0
  6
Continuous
 62
     7
370
    50
100
AcDbLine
 10
-100.7050753243133
 20
630.860510805501
 30
0.0
 11
-100.7050753243133
 21
633.5605107835395
 31
0.0
  0
LINE
  5
229
330
1F
100
AcDbEntity
  8
0
  6
Continuous
 62
     7
370
    50
100
AcDbLine
 10
-331.4136187224464
 20
633.8605108055011
 30
0.0
 11
-331.7136187224464
 21
633.5605107835396
 31
0.0
  0
LINE
  5
22A
330
1F
100
AcDbEntity
  8
0
  6
Continuous
 62
     7
370
    50
100
AcDbLine
 10
-101.0050753243133
 20
633.8605108055012
 30
0.0
 11
-100.7050753243133
 21
633.5605107835397
 31
0.0
  0
LINE
  5
22B
330
1F
100
AcDbEntity
  8
0
  6
CENTER
 62
     7
370
    30
100
AcDbLine
 10
-238.0923379174852
 20
592.360510805501
 30
0.0
 11
-228.0923379174852
 21
592.360510805501
 31
0.0
  0
LINE
  5
22C
330
1F
100
AcDbEntity
  8
0
  6
CENTER
 62
     7
370
    30
100
AcDbLine
 10
-233.0923379174852
 20
567.360510805501
 30
0.0
 11
-233.0923379174852
 21
597.360510805501
 31
0.0
  0
LINE
  5
22D
330
1F
100
AcDbEntity
  8
0
  6
Continuous
 62
     7
370
    50
100
AcDbLine
 10
-235.0923379174852
 20
571.360510805501
 30
0.0
 11
-235.0923379174852
 21
573.360510805501
 31
0.0
  0
LINE
  5
22E
330
1F
100
AcDbEntity
  8
0
  6
Continuous
 62
     7
370
    50
100
AcDbLine
 10
-231.0923379174852
 20
571.360510805501
 30
0.0
 11
-231.0923379174852
 21
573.360510805501
 31
0.0
  0
LINE
  5
22F
330
1F
100
AcDbEntity
  8
0
  6
CENTER
 62
     7
370
    30
100
AcDbLine
 10
-267.0923379174852
 20
587.360510805501
 30
0.0
 11
-228.5770269744903
 21
587.360510805501
 31
0.0
  0
LINE
  5
230
330
1F
100
AcDbEntity
  8
0
  6
CENTER
 62
     7
370
    30
100
AcDbLine
 10
-242.0923379174852
 20
577.360510805501
 30
0.0
 11
-242.0923379174852
 21
597.360510805501
 31
0.0
  0
LINE
  5
231
330
1F
100
AcDbEntity
  8
0
  6
Continuous
 62
     7
370
    50
100
AcDbLine
 10
-216.5923379174852
 20
435.860510805501
 30
0.0
 11
-216.5923379174852
 21
597.360510805501
 31
0.0
  0
LINE
  5
232
330
1F
100
AcDbEntity
  8
0
  6
Continuous
 62
     7
370
    50
100
AcDbLine
 10
-326.5985792749486
 20
568.2715340890009
 30
0.0
 11
-323.7517099067188
 21
574.1509382190407
 31
0.0
  0
LINE
  5
233
330
1F
100
AcDbEntity
  8
0
  6
Continuous
 62
     7
370
    50
100
AcDbLine
 10
-280.749740248322
 20
602.360510805501
 30
0.0
 11
-221.5923379174852
 21
602.360510805501
 31
0.0
  0
LINE
  5
234
330
1F
100
AcDbEntity
  8
0
  6
Continuous
 62
     7
370
    50
100
AcDbLine
 10
-319.3427344655367
 20
448.3010840528971
 30
0.0
 11
-331.1855029482533
 21
540.0825397939514
 31
0.0
  0
LINE
  5
235
330
1F
100
AcDbEntity
  8
0
  6
Continuous
 62
     7
370
    50
100
AcDbLine
 10
-299.5071771328559
 20
430.860510805501
 30
0.0
 11
-221.5923379174852
 21
430.860510805501
 31
0.0
  0
LINE
  5
236
330
1F
100
AcDbEntity
  8
0
  6
PHANTOM
 62
     7
370
    30
100
AcDbLine
 10
-294.5923379174852
 20
444.360510805501
 30
0.0
 11
-216.5923379174852
 21
444.360510805501
 31
0.0
  0
LINE
  5
237
330
1F
100
AcDbEntity
  8
0
  6
PHANTOM
 62
     7
370
    30
100
AcDbLine
 10
-294.5923379174852
 20
553.360510805501
 30
0.0
 11
-216.5923379174852
 21
553.360510805501
 31
0.0
  0
LINE
  5
238
330
1F
100
AcDbEntity
  8
0
  6
PHANTOM
 62
     7
370
    30
100
AcDbLine
 10
-302.5923379174852
 20
452.3605108055011
 30
0.0
 11
-302.5923379174852
 21
545.360510805501
 31
0.0
  0
LINE
  5
239
330
1F
100
AcDbEntity
  8
0
  6
CENTER
 62
     7
370
    30
100
AcDbLine
 10
-257.0923379174852
 20
577.360510805501
 30
0.0
 11
-257.0923379174852
 21
597.360510805501
 31
0.0
  0
LINE
  5
23A
330
1F
100
AcDbEntity
  8
0
  6
CENTER
 62
     7
370
    30
100
AcDbLine
 10
-194.0923379174852
 20
592.360510805501
 30
0.0
 11
-204.0923379174852
 21
592.360510805501
 31
0.0
  0
LINE
  5
23B
330
1F
100
AcDbEntity
  8
0
  6
CENTER
 62
     7
370
    30
100
AcDbLine
 10
-199.0923379174852
 20
567.360510805501
 30
0.0
 11
-199.0923379174852
 21
597.360510805501
 31
0.0
  0
LINE
  5
23C
330
1F
100
AcDbEntity
  8
0
  6
Continuous
 62
     7
370
    50
100
AcDbLine
 10
-197.0923379174852
 20
571.360510805501
 30
0.0
 11
-197.0923379174852
 21
573.360510805501
 31
0.0
  0
LINE
  5
23D
330
1F
100
AcDbEntity
  8
0
  6
Continuous
 62
     7
370
    50
100
AcDbLine
 10
-201.0923379174852
 20
571.360510805501
 30
0.0
 11
-201.0923379174852
 21
573.360510805501
 31
0.0
  0
LINE
  5
23E
330
1F
100
AcDbEntity
  8
0
  6
CENTER
 62
     7
370
    30
100
AcDbLine
 10
-165.0923379174852
 20
587.360510805501
 30
0.0
 11
-203.6076488604801
 21
587.360510805501
 31
0.0
  0
LINE
  5
23F
330
1F
100
AcDbEntity
  8
0
  6
CENTER
 62
     7
370
    30
100
AcDbLine
 10
-190.0923379174852
 20
577.360510805501
 30
0.0
 11
-190.0923379174852
 21
597.360510805501
 31
0.0
  0
LINE
  5
240
330
1F
100
AcDbEntity
  8
0
  6
Continuous
 62
     7
370
    50
100
AcDbLine
 10
-215.5923379174852
 20
435.860510805501
 30
0.0
 11
-215.5923379174852
 21
597.360510805501
 31
0.0
  0
LINE
  5
241
330
1F
100
AcDbEntity
  8
0
  6
Continuous
 62
     7
370
    50
100
AcDbLine
 10
-105.5860965600218
 20
568.2715340890007
 30
0.0
 11
-108.4329659282517
 21
574.1509382190407
 31
0.0
  0
LINE
  5
242
330
1F
100
AcDbEntity
  8
0
  6
Continuous
 62
     7
370
    50
100
AcDbLine
 10
-151.4349355866485
 20
602.360510805501
 30
0.0
 11
-210.5923379174852
 21
602.360510805501
 31
0.0
  0
LINE
  5
243
330
1F
100
AcDbEntity
  8
0
  6
Continuous
 62
     7
370
    50
100
AcDbLine
 10
-112.8419413694338
 20
448.301084052897
 30
0.0
 11
-100.9991728867171
 21
540.0825397939514
 31
0.0
  0
LINE
  5
244
330
1F
100
AcDbEntity
  8
0
  6
Continuous
 62
     7
370
    50
100
AcDbLine
 10
-132.6774987021146
 20
430.860510805501
 30
0.0
 11
-210.5923379174852
 21
430.860510805501
 31
0.0
  0
LINE
  5
245
330
1F
100
AcDbEntity
  8
0
  6
PHANTOM
 62
     7
370
    30
100
AcDbLine
 10
-137.5923379174852
 20
444.360510805501
 30
0.0
 11
-215.5923379174852
 21
444.360510805501
 31
0.0
  0
LINE
  5
246
330
1F
100
AcDbEntity
  8
0
  6
PHANTOM
 62
     7
370
    30
100
AcDbLine
 10
-137.5923379174852
 20
553.360510805501
 30
0.0
 11
-215.5923379174852
 21
553.360510805501
 31
0.0
  0
LINE
  5
247
330
1F
100
AcDbEntity
  8
0
  6
PHANTOM
 62
     7
370
    30
100
AcDbLine
 10
-129.5923379174852
 20
452.3605108055011
 30
0.0
 11
-129.5923379174852
 21
545.360510805501
 31
0.0
  0
LINE
  5
248
330
1F
100
AcDbEntity
  8
0
  6
CENTER
 62
     7
370
    30
100
AcDbLine
 10
-175.0923379174852
 20
577.360510805501
 30
0.0
 11
-175.0923379174852
 21
597.360510805501
 31
0.0
  0
LINE
  5
249
330
1F
100
AcDbEntity
  8
0
  6
Continuous
 62
     7
370
    50
100
AcDbLine
 10
-241.2922654381467
 20
282.3465726731444
 30
0.0
 11
-241.2922654381467
 21
283.2465726292212
 31
0.0
  0
LINE
  5
24A
330
1F
100
AcDbEntity
  8
0
  6
Continuous
 62
     7
370
    50
100
AcDbLine
 10
-235.8922654381469
 20
282.3465726731444
 30
0.0
 11
-235.8922654381469
 21
283.2465726292212
 31
0.0
  0
LINE
  5
24B
330
1F
100
AcDbEntity
  8
0
  6
Continuous
 62
     7
370
    50
100
AcDbLine
 10
-196.2922654381467
 20
282.3465726731444
 30
0.0
 11
-196.2922654381467
 21
283.2465726292212
 31
0.0
  0
LINE
  5
24C
330
1F
100
AcDbEntity
  8
0
  6
Continuous
 62
     7
370
    50
100
AcDbLine
 10
-190.8922654381466
 20
282.3465726731444
 30
0.0
 11
-190.8922654381466
 21
283.2465726292212
 31
0.0
  0
LINE
  5
24D
330
1F
100
AcDbEntity
  8
0
  6
Continuous
 62
     7
370
    50
100
AcDbLine
 10
-248.5922654385638
 20
282.1472537320321
 30
0.0
 11
-248.5922654385638
 21
283.4442105949669
 31
0.0
  0
LINE
  5
24E
330
1F
100
AcDbEntity
  8
0
  6
Continuous
 62
     7
370
    50
100
AcDbLine
 10
-183.5922654382368
 20
282.1333880624007
 30
0.0
 11
-183.5922654382368
 21
283.4293714242793
 31
0.0
  0
LINE
  5
24F
330
1F
100
AcDbEntity
  8
0
  6
Continuous
 62
     7
370
    50
100
AcDbLine
 10
-241.5922654381468
 20
282.0465726511828
 30
0.0
 11
-241.2922654381468
 21
282.3465726731444
 31
0.0
  0
LINE
  5
250
330
1F
100
AcDbEntity
  8
0
  6
Continuous
 62
     7
370
    50
100
AcDbLine
 10
-235.5922654381469
 20
282.0465726511829
 30
0.0
 11
-235.8922654381469
 21
282.3465726731444
 31
0.0
  0
LINE
  5
251
330
1F
100
AcDbEntity
  8
0
  6
Continuous
 62
     7
370
    50
100
AcDbLine
 10
-235.5922654381469
 20
283.5465726511828
 30
0.0
 11
-235.8922654381469
 21
283.2465726292212
 31
0.0
  0
LINE
  5
252
330
1F
100
AcDbEntity
  8
0
  6
Continuous
 62
     7
370
    50
100
AcDbLine
 10
-241.5922654381467
 20
283.5465726511828
 30
0.0
 11
-241.2922654381467
 21
283.2465726292212
 31
0.0
  0
LINE
  5
253
330
1F
100
AcDbEntity
  8
0
  6
Continuous
 62
     7
370
    50
100
AcDbLine
 10
-196.5922654381467
 20
282.0465726511828
 30
0.0
 11
-196.2922654381467
 21
282.3465726731444
 31
0.0
  0
LINE
  5
254
330
1F
100
AcDbEntity
  8
0
  6
Continuous
 62
     7
370
    50
100
AcDbLine
 10
-196.5922654381467
 20
283.5465726511829
 30
0.0
 11
-196.2922654381467
 21
283.2465726292213
 31
0.0
  0
LINE
  5
255
330
1F
100
AcDbEntity
  8
0
  6
Continuous
 62
     7
370
    50
100
AcDbLine
 10
-190.5922654381467
 20
283.5465726511829
 30
0.0
 11
-190.8922654381467
 21
283.2465726292213
 31
0.0
  0
LINE
  5
256
330
1F
100
AcDbEntity
  8
0
  6
Continuous
 62
     7
370
    50
100
AcDbLine
 10
-190.5922654381466
 20
282.0465726511828
 30
0.0
 11
-190.8922654381467
 21
282.3465726731444
 31
0.0
  0
LINE
  5
257
330
1F
100
AcDbEntity
  8
0
  6
Continuous
 62
     7
370
    50
100
AcDbLine
 10
-56.09233791748522
 20
-39.0269093471633
 30
0.0
 11
-56.09233791748522
 21
254.8730906308752
 31
0.0
  0
LINE
  5
258
330
1F
100
AcDbEntity
  8
0
  6
Continuous
 62
     7
370
    50
100
AcDbLine
 10
-54.59233791748522
 20
-39.02690934716329
 30
0.0
 11
-54.59233791748522
 21
254.8730906089137
 31
0.0
  0
LINE
  5
259
330
1F
100
AcDbEntity
  8
0
  6
Continuous
 62
     7
370
    50
100
AcDbLine
 10
-55.79233789552369
 20
255.1730906308752
 30
0.0
 11
-54.89233791748522
 21
255.1730906308752
 31
0.0
  0
LINE
  5
25A
330
1F
100
AcDbEntity
  8
0
  6
Continuous
 62
     7
370
    50
100
AcDbLine
 10
-55.79233791748523
 20
-39.32690936912482
 30
0.0
 11
-54.89233791748522
 21
-39.32690936912482
 31
0.0
  0
LINE
  5
25B
330
1F
100
AcDbEntity
  8
0
  6
Continuous
 62
     7
370
    50
100
AcDbLine
 10
-56.09233791748524
 20
254.8730906308752
 30
0.0
 11
-55.7923378955237
 21
255.1730906308752
 31
0.0
  0
LINE
  5
25C
330
1F
100
AcDbEntity
  8
0
  6
Continuous
 62
     7
370
    50
100
AcDbLine
 10
-54.89233791748524
 20
255.1730906308753
 30
0.0
 11
-54.59233791748522
 21
254.8730906089138
 31
0.0
  0
LINE
  5
25D
330
1F
100
AcDbEntity
  8
0
  6
Continuous
 62
     7
370
    50
100
AcDbLine
 10
-55.79233791748523
 20
-39.32690936912482
 30
0.0
 11
-56.09233791748524
 21
-39.0269093471633
 31
0.0
  0
LINE
  5
25E
330
1F
100
AcDbEntity
  8
0
  6
Continuous
 62
     7
370
    50
100
AcDbLine
 10
-54.89233791748522
 20
-39.32690936912482
 30
0.0
 11
-54.59233791748522
 21
-39.0269093471633
 31
0.0
  0
LINE
  5
25F
330
1F
100
AcDbEntity
  8
0
  6
CENTER
 62
     7
370
    30
100
AcDbLine
 10
-238.5923986121826
 20
279.0858442296758
 30
0.0
 11
-238.5923986121826
 21
287.2770513549364
 31
0.0
  0
LINE
  5
260
330
1F
100
AcDbEntity
  8
0
  6
CENTER
 62
     7
370
    30
100
AcDbLine
 10
-193.5922772227881
 20
279.0858442296758
 30
0.0
 11
-193.5922772227881
 21
287.2770513549364
 31
0.0
  0
ARC
  5
261
330
1F
100
AcDbEntity
  8
0
  6
PHANTOM
 62
     7
370
    30
100
AcDbCircle
 10
-297.0922654381467
 20
79.67309063087518
 30
0.0
 40
5.0
100
AcDbArc
 50
90.00000000000011
 51
180.0000000000001
  0
ARC
  5
262
330
1F
100
AcDbEntity
  8
0
  6
Continuous
 62
     7
370
    50
100
AcDbCircle
 10
-263.1604980401468
 20
77.95281418387512
 30
0.0
 40
70.00000000000006
100
AcDbArc
 50
132.4738830884001
 51
187.1006144000001
  0
ARC
  5
263
330
1F
100
AcDbEntity
  8
0
  6
PHANTOM
 62
     7
370
    30
100
AcDbCircle
 10
-135.0923379174852
 20
-18.32690936912459
 30
0.0
 40
5.0
100
AcDbArc
 50
270.0000000000001
 51
0.000000000000102
  0
ARC
  5
264
330
1F
100
AcDbEntity
  8
0
  6
PHANTOM
 62
     7
370
    30
100
AcDbCircle
 10
-297.0923379174852
 20
-18.32690936912459
 30
0.0
 40
5.0
100
AcDbArc
 50
180.0000000000002
 51
270.0000000000001
  0
ARC
  5
265
330
1F
100
AcDbEntity
  8
0
  6
PHANTOM
 62
     7
370
    30
100
AcDbCircle
 10
-135.0923379174852
 20
79.67309063087541
 30
0.0
 40
5.0
100
AcDbArc
 50
0.000000000000102
 51
90.00000000000016
  0
ARC
  5
266
330
1F
100
AcDbEntity
  8
0
  6
Continuous
 62
     7
370
    50
100
AcDbCircle
 10
-216.0922654381467
 20
228.6730906308752
 30
0.0
 40
1.250000000000085
100
AcDbArc
 50
143.1301023542001
 51
36.86989764580015
  0
ARC
  5
267
330
1F
100
AcDbEntity
  8
0
  6
Continuous
 62
     7
370
    50
100
AcDbCircle
 10
-216.0922654381467
 20
232.6730906308752
 30
0.0
 40
1.250000000000085
100
AcDbArc
 50
323.1301023542001
 51
216.8698976458001
  0
ARC
  5
268
330
1F
100
AcDbEntity
  8
0
  6
Continuous
 62
     7
370
    50
100
AcDbCircle
 10
-132.5218115661468
 20
-17.32690936912493
 30
0.0
 40
22.00000000000007
100
AcDbArc
 50
270.0000000000001
 51
352.8993856000001
  0
ARC
  5
269
330
1F
100
AcDbEntity
  8
0
  6
Continuous
 62
     7
370
    50
100
AcDbCircle
 10
-169.0240328366468
 20
77.95281418387512
 30
0.0
 40
70.00000000000006
100
AcDbArc
 50
352.8993856000001
 51
47.52611691160016
  0
ARC
  5
26A
330
1F
100
AcDbEntity
  8
0
  6
Continuous
 62
     7
370
    50
100
AcDbCircle
 10
-74.67775021964678
 20
222.0613012178752
 30
0.0
 40
100.0000000000001
100
AcDbArc
 50
191.6336339989001
 51
227.5262249777421
  0
ARC
  5
26B
330
1F
100
AcDbEntity
  8
0
  6
Continuous
 62
     7
370
    50
100
AcDbCircle
 10
-193.5922654381467
 20
244.1730906308751
 30
0.0
 40
2.700000000000031
100
AcDbArc
 50
180.0000000000001
 51
0.000000000000102
  0
ARC
  5
26C
330
1F
100
AcDbEntity
  8
0
  6
Continuous
 62
     7
370
    50
100
AcDbCircle
 10
-189.8922654381466
 20
254.1730906308751
 30
0.0
 40
1.000000000000014
100
AcDbArc
 50
90.00000000000011
 51
180.0000000000001
  0
ARC
  5
26D
330
1F
100
AcDbEntity
  8
0
  6
Continuous
 62
     7
370
    50
100
AcDbCircle
 10
-184.4073569061467
 20
254.1730906308751
 30
0.0
 40
0.999999999999943
100
AcDbArc
 50
11.63363399890012
 51
90.00000000000016
  0
ARC
  5
26E
330
1F
100
AcDbEntity
  8
0
  6
Continuous
 62
     7
370
    50
100
AcDbCircle
 10
-238.5922654381467
 20
244.1730906308751
 30
0.0
 40
2.700000000000031
100
AcDbArc
 50
180.0000000000001
 51
0.000000000000102
  0
ARC
  5
26F
330
1F
100
AcDbEntity
  8
0
  6
Continuous
 62
     7
370
    50
100
AcDbCircle
 10
-197.2922654381467
 20
252.1730906308752
 30
0.0
 40
1.000000000000085
100
AcDbArc
 50
0.000000000000127
 51
90.00000000000016
  0
ARC
  5
270
330
1F
100
AcDbEntity
  8
0
  6
Continuous
 62
     7
370
    50
100
AcDbCircle
 10
-234.8922654381466
 20
252.1730906308752
 30
0.0
 40
1.000000000000085
100
AcDbArc
 50
90.00000000000011
 51
180.0000000000001
  0
ARC
  5
271
330
1F
100
AcDbEntity
  8
0
  6
Continuous
 62
     7
370
    50
100
AcDbCircle
 10
-242.2922654381467
 20
254.1730906308751
 30
0.0
 40
1.000000000000014
100
AcDbArc
 50
0.000000000000127
 51
90.00000000000016
  0
ARC
  5
272
330
1F
100
AcDbEntity
  8
0
  6
Continuous
 62
     7
370
    50
100
AcDbCircle
 10
-247.7771739701467
 20
254.1730906308751
 30
0.0
 40
0.999999999999943
100
AcDbArc
 50
90.00000000000011
 51
168.3663660011001
  0
ARC
  5
273
330
1F
100
AcDbEntity
  8
0
  6
Continuous
 62
     7
370
    50
100
AcDbCircle
 10
-357.5067806571466
 20
222.0613012178752
 30
0.0
 40
100.0
100
AcDbArc
 50
312.4738830884002
 51
348.3663660011001
  0
ARC
  5
274
330
1F
100
AcDbEntity
  8
0
  6
Continuous
 62
     7
370
    50
100
AcDbCircle
 10
-299.6627193101468
 20
-17.32690936912493
 30
0.0
 40
22.00000000000003
100
AcDbArc
 50
187.1006144000001
 51
270.0000000000001
  0
ARC
  5
275
330
1F
100
AcDbEntity
  8
0
  6
PHANTOM
 62
     7
370
    30
100
AcDbCircle
 10
-805.347921557644
 20
545.4190153584484
 30
0.0
 40
8.0
100
AcDbArc
 50
90.0
 51
180.0
  0
ARC
  5
276
330
1F
100
AcDbEntity
  8
0
  6
Continuous
 62
     7
370
    50
100
AcDbCircle
 10
-792.3521932567105
 20
546.5396112284086
 30
0.0
 40
50.0
100
AcDbArc
 50
154.1632457759984
 51
187.3523815455529
  0
ARC
  5
277
330
1F
100
AcDbEntity
  8
0
  6
Continuous
 62
     7
370
    50
100
AcDbCircle
 10
-810.2627607730146
 20
450.9190153584483
 30
0.0
 40
20.0
100
AcDbArc
 50
187.3523753190979
 51
270.0
  0
ARC
  5
278
330
1F
100
AcDbEntity
  8
0
  6
Continuous
 62
     7
370
    50
100
AcDbCircle
 10
-789.5053238884807
 20
552.4190153584484
 30
0.0
 40
50.0
100
AcDbArc
 50
90.0000000000001
 51
154.1632457759985
  0
ARC
  5
279
330
1F
100
AcDbEntity
  8
0
  6
Continuous
 62
     7
370
    50
100
AcDbCircle
 10
-643.4330823422733
 20
450.9190153584483
 30
0.0
 40
20.0
100
AcDbArc
 50
270.0
 51
352.6476206401077
  0
ARC
  5
27A
330
1F
100
AcDbEntity
  8
0
  6
Continuous
 62
     7
370
    50
100
AcDbCircle
 10
-743.847921557644
 20
588.4190153584484
 30
0.0
 40
2.0
100
AcDbArc
 50
270.0
 51
90.0
  0
ARC
  5
27B
330
1F
100
AcDbEntity
  8
0
  6
Continuous
 62
     7
370
    50
100
AcDbCircle
 10
-745.847921557644
 20
588.4190153584484
 30
0.0
 40
2.0
100
AcDbArc
 50
90.0
 51
270.0
  0
CIRCLE
  5
27C
330
1F
100
AcDbEntity
  8
0
  6
Continuous
 62
     7
370
    50
100
AcDbCircle
 10
-708.847921557644
 20
588.4190153584484
 30
0.0
 40
2.0
  0
ARC
  5
27D
330
1F
100
AcDbEntity
  8
0
  6
Continuous
 62
     7
370
    50
100
AcDbCircle
 10
-664.1905192268073
 20
552.4190153584484
 30
0.0
 40
50.0
100
AcDbArc
 50
25.83675422400159
 51
90.0
  0
CIRCLE
  5
27E
330
1F
100
AcDbEntity
  8
0
  6
Continuous
 62
     7
370
    50
100
AcDbCircle
 10
-767.847921557644
 20
587.4190153584484
 30
0.0
 40
1.7
  0
CIRCLE
  5
27F
330
1F
100
AcDbEntity
  8
0
  6
Continuous
 62
     7
370
    30
100
AcDbCircle
 10
-767.847921557644
 20
587.4190153584484
 30
0.0
 40
2.5
  0
CIRCLE
  5
280
330
1F
100
AcDbEntity
  8
0
  6
Continuous
 62
     7
370
    30
100
AcDbCircle
 10
-685.847921557644
 20
587.4190153584484
 30
0.0
 40
2.5
  0
ARC
  5
281
330
1F
100
AcDbEntity
  8
0
  6
Continuous
 62
     7
370
    50
100
AcDbCircle
 10
-661.3436498585775
 20
546.5396112284086
 30
0.0
 40
50.0
100
AcDbArc
 50
352.6476206401077
 51
25.83675422400159
  0
ARC
  5
282
330
1F
100
AcDbEntity
  8
0
  6
PHANTOM
 62
     7
370
    30
100
AcDbCircle
 10
-648.347921557644
 20
545.4190153584484
 30
0.0
 40
8.0
100
AcDbArc
 50
0.0
 51
90.0
  0
ARC
  5
283
330
1F
100
AcDbEntity
  8
0
  6
PHANTOM
 62
     7
370
    30
100
AcDbCircle
 10
-648.347921557644
 20
452.4190153584483
 30
0.0
 40
8.0
100
AcDbArc
 50
270.0
 51
0.0
  0
ARC
  5
284
330
1F
100
AcDbEntity
  8
0
  6
PHANTOM
 62
     7
370
    30
100
AcDbCircle
 10
-805.347921557644
 20
452.4190153584483
 30
0.0
 40
8.0
100
AcDbArc
 50
180.0
 51
270.0
  0
CIRCLE
  5
285
330
1F
100
AcDbEntity
  8
0
  6
Continuous
 62
     7
370
    50
100
AcDbCircle
 10
-685.847921557644
 20
587.4190153584484
 30
0.0
 40
1.7
  0
ARC
  5
286
330
1F
100
AcDbEntity
  8
0
  6
Continuous
 62
     7
370
    50
100
AcDbCircle
 10
-564.847921557644
 20
600.4190153584484
 30
0.0
 40
2.0
100
AcDbArc
 50
90.00000000000001
 51
180.0
  0
ARC
  5
287
330
1F
100
AcDbEntity
  8
0
  6
Continuous
 62
     7
370
    50
100
AcDbCircle
 10
-564.847921557644
 20
432.9190153584483
 30
0.0
 40
2.0
100
AcDbArc
 50
180.0
 51
270.0
  0
ARC
  5
288
330
1F
100
AcDbEntity
  8
0
  6
Continuous
 62
     7
370
    50
100
AcDbCircle
 10
-840.3521932567105
 20
630.9190153584484
 30
0.0
 40
2.0
100
AcDbArc
 50
180.0
 51
270.0
  0
ARC
  5
289
330
1F
100
AcDbEntity
  8
0
  6
Continuous
 62
     7
370
    50
100
AcDbCircle
 10
-613.3436498585775
 20
630.9190153584484
 30
0.0
 40
2.0
100
AcDbArc
 50
270.0
 51
359.9999999999999
  0
ARC
  5
28A
330
1F
100
AcDbEntity
  8
0
  6
Continuous
 62
     7
370
    50
100
AcDbCircle
 10
-54.09233791748522
 20
600.4190153584484
 30
0.0
 40
2.0
100
AcDbArc
 50
90.00000000000001
 51
180.0
  0
ARC
  5
28B
330
1F
100
AcDbEntity
  8
0
  6
Continuous
 62
     7
370
    50
100
AcDbCircle
 10
-54.09233791748522
 20
432.9190153584483
 30
0.0
 40
2.0
100
AcDbArc
 50
180.0
 51
270.0
  0
ARC
  5
28C
330
1F
100
AcDbEntity
  8
0
  6
Continuous
 62
     7
370
    50
100
AcDbCircle
 10
-329.7136187224464
 20
630.860510805501
 30
0.0
 40
2.0
100
AcDbArc
 50
180.0
 51
270.0
  0
ARC
  5
28D
330
1F
100
AcDbEntity
  8
0
  6
Continuous
 62
     7
370
    50
100
AcDbCircle
 10
-102.7050753243133
 20
630.860510805501
 30
0.0
 40
2.0
100
AcDbArc
 50
270.0
 51
359.9999999999999
  0
ARC
  5
28E
330
1F
100
AcDbEntity
  8
0
  6
Continuous
 62
     7
370
    50
100
AcDbCircle
 10
-281.5966096165518
 20
546.4811066754612
 30
0.0
 40
50.0
100
AcDbArc
 50
154.1632457759984
 51
187.3523793598924
  0
ARC
  5
28F
330
1F
100
AcDbEntity
  8
0
  6
Continuous
 62
     7
370
    50
100
AcDbCircle
 10
-278.749740248322
 20
552.360510805501
 30
0.0
 40
50.0
100
AcDbArc
 50
90.0000000000001
 51
154.1632457759985
  0
CIRCLE
  5
290
330
1F
100
AcDbEntity
  8
0
  6
Continuous
 62
     7
370
    30
100
AcDbCircle
 10
-257.0923379174852
 20
587.360510805501
 30
0.0
 40
2.5
  0
CIRCLE
  5
291
330
1F
100
AcDbEntity
  8
0
  6
Continuous
 62
     7
370
    50
100
AcDbCircle
 10
-257.0923379174852
 20
587.360510805501
 30
0.0
 40
1.7
  0
ARC
  5
292
330
1F
100
AcDbEntity
  8
0
  6
Continuous
 62
     7
370
    50
100
AcDbCircle
 10
-233.0923379174852
 20
573.360510805501
 30
0.0
 40
2.0
100
AcDbArc
 50
0.000000000000051
 51
180.0
  0
ARC
  5
293
330
1F
100
AcDbEntity
  8
0
  6
Continuous
 62
     7
370
    50
100
AcDbCircle
 10
-233.0923379174852
 20
571.360510805501
 30
0.0
 40
2.0
100
AcDbArc
 50
180.0
 51
0.000000000000051
  0
CIRCLE
  5
294
330
1F
100
AcDbEntity
  8
0
  6
Continuous
 62
     7
370
    50
100
AcDbCircle
 10
-233.0923379174852
 20
592.360510805501
 30
0.0
 40
2.0
  0
ARC
  5
295
330
1F
100
AcDbEntity
  8
0
  6
Continuous
 62
     7
370
    50
100
AcDbCircle
 10
-221.5923379174852
 20
597.360510805501
 30
0.0
 40
5.0
100
AcDbArc
 50
0.000000000000051
 51
90.0000000000001
  0
ARC
  5
296
330
1F
100
AcDbEntity
  8
0
  6
PHANTOM
 62
     7
370
    30
100
AcDbCircle
 10
-294.5923379174852
 20
452.360510805501
 30
0.0
 40
8.0
100
AcDbArc
 50
180.0
 51
270.0
  0
ARC
  5
297
330
1F
100
AcDbEntity
  8
0
  6
PHANTOM
 62
     7
370
    30
100
AcDbCircle
 10
-294.5923379174852
 20
545.360510805501
 30
0.0
 40
8.0
100
AcDbArc
 50
90.0000000000001
 51
180.0000000000001
  0
ARC
  5
298
330
1F
100
AcDbEntity
  8
0
  6
Continuous
 62
     7
370
    50
100
AcDbCircle
 10
-221.5923379174852
 20
435.860510805501
 30
0.0
 40
5.0
100
AcDbArc
 50
270.0
 51
0.000000000000051
  0
ARC
  5
299
330
1F
100
AcDbEntity
  8
0
  6
Continuous
 62
     7
370
    50
100
AcDbCircle
 10
-299.5071771328559
 20
450.860510805501
 30
0.0
 40
20.0
100
AcDbArc
 50
187.3523793598924
 51
270.0
  0
CIRCLE
  5
29A
330
1F
100
AcDbEntity
  8
0
  6
Continuous
 62
     7
370
    30
100
AcDbCircle
 10
-242.0923379174852
 20
587.360510805501
 30
0.0
 40
2.5
  0
CIRCLE
  5
29B
330
1F
100
AcDbEntity
  8
0
  6
Continuous
 62
     7
370
    50
100
AcDbCircle
 10
-242.0923379174852
 20
587.360510805501
 30
0.0
 40
1.7
  0
ARC
  5
29C
330
1F
100
AcDbEntity
  8
0
  6
Continuous
 62
     7
370
    50
100
AcDbCircle
 10
-150.5880662184186
 20
546.4811066754612
 30
0.0
 40
50.0
100
AcDbArc
 50
352.6476206401076
 51
25.83675422400149
  0
ARC
  5
29D
330
1F
100
AcDbEntity
  8
0
  6
Continuous
 62
     7
370
    50
100
AcDbCircle
 10
-153.4349355866485
 20
552.360510805501
 30
0.0
 40
50.0
100
AcDbArc
 50
25.83675422400149
 51
89.99999999999984
  0
CIRCLE
  5
29E
330
1F
100
AcDbEntity
  8
0
  6
Continuous
 62
     7
370
    30
100
AcDbCircle
 10
-175.0923379174852
 20
587.360510805501
 30
0.0
 40
2.5
  0
CIRCLE
  5
29F
330
1F
100
AcDbEntity
  8
0
  6
Continuous
 62
     7
370
    50
100
AcDbCircle
 10
-175.0923379174852
 20
587.360510805501
 30
0.0
 40
1.7
  0
ARC
  5
2A0
330
1F
100
AcDbEntity
  8
0
  6
Continuous
 62
     7
370
    50
100
AcDbCircle
 10
-199.0923379174852
 20
573.360510805501
 30
0.0
 40
2.0
100
AcDbArc
 50
359.9999999999999
 51
179.9999999999999
  0
ARC
  5
2A1
330
1F
100
AcDbEntity
  8
0
  6
Continuous
 62
     7
370
    50
100
AcDbCircle
 10
-199.0923379174852
 20
571.360510805501
 30
0.0
 40
2.0
100
AcDbArc
 50
179.9999999999999
 51
0.0
  0
CIRCLE
  5
2A2
330
1F
100
AcDbEntity
  8
0
  6
Continuous
 62
     7
370
    50
100
AcDbCircle
 10
-199.0923379174852
 20
592.360510805501
 30
0.0
 40
2.0
  0
ARC
  5
2A3
330
1F
100
AcDbEntity
  8
0
  6
Continuous
 62
     7
370
    50
100
AcDbCircle
 10
-210.5923379174852
 20
597.360510805501
 30
0.0
 40
5.0
100
AcDbArc
 50
89.99999999999984
 51
179.9999999999999
  0
ARC
  5
2A4
330
1F
100
AcDbEntity
  8
0
  6
PHANTOM
 62
     7
370
    30
100
AcDbCircle
 10
-137.5923379174852
 20
452.360510805501
 30
0.0
 40
8.0
100
AcDbArc
 50
269.9999999999999
 51
359.9999999999999
  0
ARC
  5
2A5
330
1F
100
AcDbEntity
  8
0
  6
PHANTOM
 62
     7
370
    30
100
AcDbCircle
 10
-137.5923379174852
 20
545.360510805501
 30
0.0
 40
8.0
100
AcDbArc
 50
359.9999999999999
 51
89.99999999999987
  0
ARC
  5
2A6
330
1F
100
AcDbEntity
  8
0
  6
Continuous
 62
     7
370
    50
100
AcDbCircle
 10
-210.5923379174852
 20
435.860510805501
 30
0.0
 40
5.0
100
AcDbArc
 50
179.9999999999999
 51
269.9999999999999
  0
ARC
  5
2A7
330
1F
100
AcDbEntity
  8
0
  6
Continuous
 62
     7
370
    50
100
AcDbCircle
 10
-132.6774987021146
 20
450.860510805501
 30
0.0
 40
20.0
100
AcDbArc
 50
269.9999999999999
 51
352.6476206401076
  0
CIRCLE
  5
2A8
330
1F
100
AcDbEntity
  8
0
  6
Continuous
 62
     7
370
    30
100
AcDbCircle
 10
-190.0923379174852
 20
587.360510805501
 30
0.0
 40
2.5
  0
CIRCLE
  5
2A9
330
1F
100
AcDbEntity
  8
0
  6
Continuous
 62
     7
370
    50
100
AcDbCircle
 10
-190.0923379174852
 20
587.360510805501
 30
0.0
 40
1.7
  0
MTEXT
  5
2AA
330
1F
100
AcDbEntity
  8
0
 62
     7
100
AcDbMText
 10
-909.6578788103503
 20
664.8020062525536
 30
0.0
 40
5.0
 41
0.0
 71
     7
 72
     1
  1
{\W1;<Work clamp processing diagram>}
 73
     1
 44
1.0
  0
MTEXT
  5
2AB
330
1F
100
AcDbEntity
  8
0
 62
     7
100
AcDbMText
 10
-909.6578788103503
 20
657.349625356939
 30
0.0
 40
5.0
 41
0.0
 71
     7
 72
     1
  1
{\W1;Motor-driven work clamp specifications}
 73
     1
 44
1.0
  0
MTEXT
  5
2AC
330
1F
100
AcDbEntity
  8
0
 62
     7
100
AcDbMText
 10
-398.8425546453208
 20
664.8020062525536
 30
0.0
 40
5.0
 41
0.0
 71
     7
 72
     1
  1
{\W1;<Work clamp processing diagram>}
 73
     1
 44
1.0
  0
MTEXT
  5
2AD
330
1F
100
AcDbEntity
  8
0
 62
     7
100
AcDbMText
 10
-398.8425546453208
 20
657.349625356939
 30
0.0
 40
5.0
 41
0.0
 71
     7
 72
     1
  1
{\W1;Pneumatic work clamp specifications}
 73
     1
 44
1.0
  0
MTEXT
  5
2AE
330
1F
100
AcDbEntity
  8
0
 62
     7
100
AcDbMText
 10
-398.8425546453208
 20
649.8972444613244
 30
0.0
 40
5.0
 41
0.0
 71
     7
 72
     1
  1
{\W1;The left and right work clamps are symmetrical.}
 73
     1
 44
1.0
  0
MTEXT
  5
2AF
330
1F
100
AcDbEntity
  8
0
 62
     7
100
AcDbMText
 10
-398.8425546453208
 20
301.6145860779278
 30
0.0
 40
5.0
 41
0.0
 71
     7
 72
     1
  1
{\W1;<Feed plate processing diagram>}
 73
     1
 44
1.0
  0
ENDSEC
  0
SECTION
  2
OBJECTS
  0
DICTIONARY
  5
C
330
0
100
AcDbDictionary
281
     1
  3
ACAD_GROUP
350
D
  3
ACAD_LAYOUT
350
1A
  3
ACAD_MLEADERSTYLE
350
2B2
  3
ACAD_MLINESTYLE
350
17
  3
ACAD_PLOTSETTINGS
350
19
  3
ACAD_PLOTSTYLENAME
350
E
  3
ACAD_SCALELIST
350
E8
  3
ACAD_VISUALSTYLE
350
2A
  3
AcDbVariableDictionary
350
2B0
  0
DICTIONARY
  5
D
102
{ACAD_REACTORS
330
C
102
}
330
C
100
AcDbDictionary
281
     1
  0
DICTIONARY
  5
1A
102
{ACAD_REACTORS
330
C
102
}
330
C
100
AcDbDictionary
281
     1
  3
Layout1
350
1E
  3
Layout2
350
26
  3
Model
350
22
  0
DICTIONARY
  5
2B2
102
{ACAD_REACTORS
330
C
102
}
330
C
100
AcDbDictionary
281
     1
  0
DICTIONARY
  5
17
102
{ACAD_REACTORS
330
C
102
}
330
C
100
AcDbDictionary
281
     1
  3
Standard
350
18
  0
DICTIONARY
  5
19
102
{ACAD_REACTORS
330
C
102
}
330
C
100
AcDbDictionary
281
     1
  0
ACDBDICTIONARYWDFLT
  5
E
102
{ACAD_REACTORS
330
C
102
}
330
C
100
AcDbDictionary
281
     1
  3
Normal
350
F
100
AcDbDictionaryWithDefault
340
F
  0
DICTIONARY
  5
E8
102
{ACAD_REACTORS
330
C
102
}
330
C
100
AcDbDictionary
281
     1
  3
A0
350
E9
  3
A1
350
EA
  3
A2
350
EB
  3
A3
350
EC
  3
A4
350
ED
  3
A5
350
EE
  3
A6
350
EF
  3
A7
350
F0
  3
A8
350
F1
  3
A9
350
F2
  3
B0
350
F3
  3
B1
350
F4
  3
B2
350
F5
  3
B3
350
F6
  3
B4
350
F7
  3
B5
350
F8
  3
B6
350
F9
  3
B7
350
FA
  3
B8
350
FB
  3
B9
350
FC
  3
C0
350
FD
  3
C1
350
FE
  3
C2
350
FF
  3
C3
350
100
  3
C4
350
101
  3
C5
350
102
  3
C6
350
103
  3
C7
350
104
  3
C8
350
105
  3
C9
350
106
  3
D0
350
107
  3
D1
350
108
  3
D2
350
109
  0
DICTIONARY
  5
2A
102
{ACAD_REACTORS
330
C
102
}
330
C
100
AcDbDictionary
281
     1
  3
2dWireframe
350
2F
  3
3D Hidden
350
31
  3
3dWireframe
350
30
  3
Basic
350
32
  3
Brighten
350
36
  3
ColorChange
350
3A
  3
Conceptual
350
34
  3
Dim
350
35
  3
Facepattern
350
39
  3
Flat
350
2B
  3
FlatWithEdges
350
2C
  3
Gouraud
350
2D
  3
GouraudWithEdges
350
2E
  3
Linepattern
350
38
  3
Realistic
350
33
  3
Thicken
350
37
  0
DICTIONARY
  5
2B0
102
{ACAD_REACTORS
330
C
102
}
330
C
100
AcDbDictionary
281
     1
  3
CANNOSCALE
350
2B5
  3
DIMASSOC
350
2B6
  3
HIDETEXT
350
2B7
  3
PSOLHEIGHT
350
2B4
  3
PSOLWIDTH
350
2B3
  0
LAYOUT
  5
1E
102
{ACAD_REACTORS
330
1A
102
}
330
1A
100
AcDbPlotSettings
  1

  2
none_device
  4

  6

 40
0.0
 41
0.0
 42
0.0
 43
0.0
 44
0.0
 45
0.0
 46
0.0
 47
0.0
 48
0.0
 49
0.0
140
0.0
141
0.0
142
1.0
143
1.0
 70
   688
 72
     0
 73
     0
 74
     5
  7

 75
    16
147
1.0
148
0.0
149
0.0
100
AcDbLayout
  1
Layout1
 70
     1
 71
     1
 10
-1043.0
 20
-100.0
 11
100.0
 21
700.0
 12
0.0
 22
0.0
 32
0.0
 14
1.000000000000000E+20
 24
1.000000000000000E+20
 34
1.000000000000000E+20
 15
-1.000000000000000E+20
 25
-1.000000000000000E+20
 35
-1.000000000000000E+20
146
0.0
 13
0.0
 23
0.0
 33
0.0
 16
1.0
 26
0.0
 36
0.0
 17
0.0
 27
1.0
 37
0.0
 76
     0
330
1B
  0
LAYOUT
  5
26
102
{ACAD_REACTORS
330
1A
102
}
330
1A
100
AcDbPlotSettings
  1

  2
none_device
  4

  6

 40
0.0
 41
0.0
 42
0.0
 43
0.0
 44
0.0
 45
0.0
 46
0.0
 47
0.0
 48
0.0
 49
0.0
140
0.0
141
0.0
142
1.0
143
1.0
 70
   688
 72
     0
 73
     0
 74
     5
  7

 75
    16
147
1.0
148
0.0
149
0.0
100
AcDbLayout
  1
Layout2
 70
     1
 71
     2
 10
0.0
 20
0.0
 11
0.0
 21
0.0
 12
0.0
 22
0.0
 32
0.0
 14
0.0
 24
0.0
 34
0.0
 15
0.0
 25
0.0
 35
0.0
146
0.0
 13
0.0
 23
0.0
 33
0.0
 16
1.0
 26
0.0
 36
0.0
 17
0.0
 27
1.0
 37
0.0
 76
     0
330
23
  0
LAYOUT
  5
22
102
{ACAD_REACTORS
330
1A
102
}
330
1A
100
AcDbPlotSettings
  1

  2
none_device
  4

  6

 40
0.0
 41
0.0
 42
0.0
 43
0.0
 44
0.0
 45
0.0
 46
0.0
 47
0.0
 48
0.0
 49
0.0
140
0.0
141
0.0
142
1.0
143
1.0
 70
  1712
 72
     0
 73
     0
 74
     0
  7

 75
     0
147
1.0
148
0.0
149
0.0
100
AcDbLayout
  1
Model
 70
     1
 71
     0
 10
-1043.0
 20
-100.0
 11
100.0
 21
700.0
 12
0.0
 22
0.0
 32
0.0
 14
-1043.0
 24
-100.0
 34
0.0
 15
100.0
 25
700.0
 35
0.0
146
0.0
 13
0.0
 23
0.0
 33
0.0
 16
1.0
 26
0.0
 36
0.0
 17
0.0
 27
1.0
 37
0.0
 76
     0
330
1F
331
29
  0
MLINESTYLE
  5
18
102
{ACAD_REACTORS
330
17
102
}
330
17
100
AcDbMlineStyle
  2
Standard
 70
     0
  3

 62
   256
 51
90.0
 52
90.0
 71
     2
 49
0.5
 62
   256
  6
BYLAYER
 49
-0.5
 62
   256
  6
BYLAYER
  0
ACDBPLACEHOLDER
  5
F
102
{ACAD_REACTORS
330
E
102
}
330
E
  0
SCALE
  5
E9
102
{ACAD_REACTORS
330
E8
102
}
330
E8
100
AcDbScale
 70
     0
300
1:1
140
1.0
141
1.0
290
     1
  0
SCALE
  5
EA
102
{ACAD_REACTORS
330
E8
102
}
330
E8
100
AcDbScale
 70
     0
300
1:2
140
1.0
141
2.0
290
     0
  0
SCALE
  5
EB
102
{ACAD_REACTORS
330
E8
102
}
330
E8
100
AcDbScale
 70
     0
300
1:4
140
1.0
141
4.0
290
     0
  0
SCALE
  5
EC
102
{ACAD_REACTORS
330
E8
102
}
330
E8
100
AcDbScale
 70
     0
300
1:5
140
1.0
141
5.0
290
     0
  0
SCALE
  5
ED
102
{ACAD_REACTORS
330
E8
102
}
330
E8
100
AcDbScale
 70
     0
300
1:8
140
1.0
141
8.0
290
     0
  0
SCALE
  5
EE
102
{ACAD_REACTORS
330
E8
102
}
330
E8
100
AcDbScale
 70
     0
300
1:10
140
1.0
141
10.0
290
     0
  0
SCALE
  5
EF
102
{ACAD_REACTORS
330
E8
102
}
330
E8
100
AcDbScale
 70
     0
300
1:16
140
1.0
141
16.0
290
     0
  0
SCALE
  5
F0
102
{ACAD_REACTORS
330
E8
102
}
330
E8
100
AcDbScale
 70
     0
300
1:20
140
1.0
141
20.0
290
     0
  0
SCALE
  5
F1
102
{ACAD_REACTORS
330
E8
102
}
330
E8
100
AcDbScale
 70
     0
300
1:30
140
1.0
141
30.0
290
     0
  0
SCALE
  5
F2
102
{ACAD_REACTORS
330
E8
102
}
330
E8
100
AcDbScale
 70
     0
300
1:40
140
1.0
141
40.0
290
     0
  0
SCALE
  5
F3
102
{ACAD_REACTORS
330
E8
102
}
330
E8
100
AcDbScale
 70
     0
300
1:50
140
1.0
141
50.0
290
     0
  0
SCALE
  5
F4
102
{ACAD_REACTORS
330
E8
102
}
330
E8
100
AcDbScale
 70
     0
300
1:100
140
1.0
141
100.0
290
     0
  0
SCALE
  5
F5
102
{ACAD_REACTORS
330
E8
102
}
330
E8
100
AcDbScale
 70
     0
300
2:1
140
2.0
141
1.0
290
     0
  0
SCALE
  5
F6
102
{ACAD_REACTORS
330
E8
102
}
330
E8
100
AcDbScale
 70
     0
300
4:1
140
4.0
141
1.0
290
     0
  0
SCALE
  5
F7
102
{ACAD_REACTORS
330
E8
102
}
330
E8
100
AcDbScale
 70
     0
300
8:1
140
8.0
141
1.0
290
     0
  0
SCALE
  5
F8
102
{ACAD_REACTORS
330
E8
102
}
330
E8
100
AcDbScale
 70
     0
300
10:1
140
10.0
141
1.0
290
     0
  0
SCALE
  5
F9
102
{ACAD_REACTORS
330
E8
102
}
330
E8
100
AcDbScale
 70
     0
300
100:1
140
100.0
141
1.0
290
     0
  0
SCALE
  5
FA
102
{ACAD_REACTORS
330
E8
102
}
330
E8
100
AcDbScale
 70
     0
300
1/128" = 1'-0"
140
0.0078125
141
12.0
290
     0
  0
SCALE
  5
FB
102
{ACAD_REACTORS
330
E8
102
}
330
E8
100
AcDbScale
 70
     0
300
1/64" = 1'-0"
140
0.015625
141
12.0
290
     0
  0
SCALE
  5
FC
102
{ACAD_REACTORS
330
E8
102
}
330
E8
100
AcDbScale
 70
     0
300
1/32" = 1'-0"
140
0.03125
141
12.0
290
     0
  0
SCALE
  5
FD
102
{ACAD_REACTORS
330
E8
102
}
330
E8
100
AcDbScale
 70
     0
300
1/16" = 1'-0"
140
0.0625
141
12.0
290
     0
  0
SCALE
  5
FE
102
{ACAD_REACTORS
330
E8
102
}
330
E8
100
AcDbScale
 70
     0
300
3/32" = 1'-0"
140
0.09375
141
12.0
290
     0
  0
SCALE
  5
FF
102
{ACAD_REACTORS
330
E8
102
}
330
E8
100
AcDbScale
 70
     0
300
1/8" = 1'-0"
140
0.125
141
12.0
290
     0
  0
SCALE
  5
100
102
{ACAD_REACTORS
330
E8
102
}
330
E8
100
AcDbScale
 70
     0
300
3/16" = 1'-0"
140
0.1875
141
12.0
290
     0
  0
SCALE
  5
101
102
{ACAD_REACTORS
330
E8
102
}
330
E8
100
AcDbScale
 70
     0
300
1/4" = 1'-0"
140
0.25
141
12.0
290
     0
  0
SCALE
  5
102
102
{ACAD_REACTORS
330
E8
102
}
330
E8
100
AcDbScale
 70
     0
300
3/8" = 1'-0"
140
0.375
141
12.0
290
     0
  0
SCALE
  5
103
102
{ACAD_REACTORS
330
E8
102
}
330
E8
100
AcDbScale
 70
     0
300
1/2" = 1'-0"
140
0.5
141
12.0
290
     0
  0
SCALE
  5
104
102
{ACAD_REACTORS
330
E8
102
}
330
E8
100
AcDbScale
 70
     0
300
3/4" = 1'-0"
140
0.75
141
12.0
290
     0
  0
SCALE
  5
105
102
{ACAD_REACTORS
330
E8
102
}
330
E8
100
AcDbScale
 70
     0
300
1" = 1'-0"
140
1.0
141
12.0
290
     0
  0
SCALE
  5
106
102
{ACAD_REACTORS
330
E8
102
}
330
E8
100
AcDbScale
 70
     0
300
1-1/2" = 1'-0"
140
1.5
141
12.0
290
     0
  0
SCALE
  5
107
102
{ACAD_REACTORS
330
E8
102
}
330
E8
100
AcDbScale
 70
     0
300
3" = 1'-0"
140
3.0
141
12.0
290
     0
  0
SCALE
  5
108
102
{ACAD_REACTORS
330
E8
102
}
330
E8
100
AcDbScale
 70
     0
300
6" = 1'-0"
140
6.0
141
12.0
290
     0
  0
SCALE
  5
109
102
{ACAD_REACTORS
330
E8
102
}
330
E8
100
AcDbScale
 70
     0
300
1'-0" = 1'-0"
140
12.0
141
12.0
290
     0
  0
VISUALSTYLE
  5
2F
102
{ACAD_REACTORS
330
2A
102
}
102
{ACAD_XDICTIONARY
360
2C0
102
}
330
2A
100
AcDbVisualStyle
  2
2dWireframe
 70
     4
 71
     0
 72
     2
 73
     0
 90
        0
 40
-0.6
 41
-30.0
 62
     5
 63
     7
 74
     1
 91
        4
 64
     7
 65
   257
 75
     1
175
     1
 42
1.0
 92
        0
 66
   257
 43
1.0
 76
     1
 77
     6
 78
     2
 67
     7
 79
     5
170
     0
171
     0
290
     0
174
     0
 93
        1
 44
0.0
173
     0
291
     0
 45
0.0
1001
ACAD
1000
AcDbSavedByObjectVersion
1070
     0
  0
VISUALSTYLE
  5
31
102
{ACAD_REACTORS
330
2A
102
}
102
{ACAD_XDICTIONARY
360
2C4
102
}
330
2A
100
AcDbVisualStyle
  2
3D Hidden
 70
     6
 71
     1
 72
     2
 73
     2
 90
        0
 40
-0.6
 41
-30.0
 62
     5
 63
     7
 74
     2
 91
        2
 64
     7
 65
   257
 75
     2
175
     1
 42
40.0
 92
        0
 66
   257
 43
1.0
 76
     1
 77
     6
 78
     2
 67
     7
 79
     3
170
     0
171
     0
290
     0
174
     0
 93
        1
 44
0.0
173
     0
291
     0
 45
0.0
1001
ACAD
1000
AcDbSavedByObjectVersion
1070
     0
  0
VISUALSTYLE
  5
30
102
{ACAD_REACTORS
330
2A
102
}
102
{ACAD_XDICTIONARY
360
2C2
102
}
330
2A
100
AcDbVisualStyle
  2
3dWireframe
 70
     5
 71
     0
 72
     2
 73
     0
 90
        0
 40
-0.6
 41
-30.0
 62
     5
 63
     7
 74
     1
 91
        4
 64
     7
 65
   257
 75
     1
175
     1
 42
1.0
 92
        0
 66
   257
 43
1.0
 76
     1
 77
     6
 78
     2
 67
     7
 79
     5
170
     0
171
     0
290
     0
174
     0
 93
        1
 44
0.0
173
     0
291
     0
 45
0.0
1001
ACAD
1000
AcDbSavedByObjectVersion
1070
     0
  0
VISUALSTYLE
  5
32
102
{ACAD_REACTORS
330
2A
102
}
102
{ACAD_XDICTIONARY
360
2C6
102
}
330
2A
100
AcDbVisualStyle
  2
Basic
 70
     7
 71
     1
 72
     0
 73
     1
 90
        0
 40
-0.6
 41
-30.0
 62
     5
 63
     7
 74
     0
 91
        4
 64
     7
 65
   257
 75
     1
175
     1
 42
1.0
 92
        8
 66
     7
 43
1.0
 76
     1
 77
     6
 78
     2
 67
     7
 79
     5
170
     0
171
     0
290
     0
174
     0
 93
        1
 44
0.0
173
     0
291
     1
 45
0.0
1001
ACAD
1000
AcDbSavedByObjectVersion
1070
     0
  0
VISUALSTYLE
  5
36
102
{ACAD_REACTORS
330
2A
102
}
102
{ACAD_XDICTIONARY
360
2CE
102
}
330
2A
100
AcDbVisualStyle
  2
Brighten
 70
    12
 71
     2
 72
     2
 73
     0
 90
        0
 40
-0.6
 41
-30.0
 62
     5
 63
     7
 74
     1
 91
        4
 64
     7
 65
   257
 75
     1
175
     1
 42
1.0
 92
        8
 66
     7
 43
1.0
 76
     1
 77
     6
 78
     2
 67
     7
 79
     5
170
     0
171
     0
290
     0
174
     0
 93
        1
 44
50.0
173
     0
291
     1
 45
0.0
1001
ACAD
1000
AcDbSavedByObjectVersion
1070
     0
  0
VISUALSTYLE
  5
3A
102
{ACAD_REACTORS
330
2A
102
}
102
{ACAD_XDICTIONARY
360
2D6
102
}
330
2A
100
AcDbVisualStyle
  2
ColorChange
 70
    16
 71
     2
 72
     2
 73
     3
 90
        0
 40
-0.6
 41
-30.0
 62
     5
 63
     8
 74
     1
 91
        4
 64
     7
 65
   257
 75
     1
175
     1
 42
1.0
 92
        8
 66
     8
 43
1.0
 76
     1
 77
     6
 78
     2
 67
     7
 79
     5
170
     0
171
     0
290
     0
174
     0
 93
        1
 44
0.0
173
     0
291
     1
 45
0.0
1001
ACAD
1000
AcDbSavedByObjectVersion
1070
     0
  0
VISUALSTYLE
  5
34
102
{ACAD_REACTORS
330
2A
102
}
102
{ACAD_XDICTIONARY
360
2CA
102
}
330
2A
100
AcDbVisualStyle
  2
Conceptual
 70
     9
 71
     3
 72
     2
 73
     0
 90
        0
 40
-0.6
 41
-30.0
 62
     5
 63
     7
 74
     2
 91
        2
 64
     7
 65
   257
 75
     1
175
     1
 42
40.0
 92
        8
 66
     7
 43
1.0
 76
     1
 77
     6
 78
     2
 67
     7
 79
     3
170
     0
171
     0
290
     0
174
     0
 93
        1
 44
0.0
173
     0
291
     0
 45
0.0
1001
ACAD
1000
AcDbSavedByObjectVersion
1070
     0
  0
VISUALSTYLE
  5
35
102
{ACAD_REACTORS
330
2A
102
}
102
{ACAD_XDICTIONARY
360
2CC
102
}
330
2A
100
AcDbVisualStyle
  2
Dim
 70
    11
 71
     2
 72
     2
 73
     0
 90
        0
 40
-0.6
 41
-30.0
 62
     5
 63
     7
 74
     1
 91
        4
 64
     7
 65
   257
 75
     1
175
     1
 42
1.0
 92
        8
 66
     7
 43
1.0
 76
     1
 77
     6
 78
     2
 67
     7
 79
     5
170
     0
171
     0
290
     0
174
     0
 93
        1
 44
-50.0
173
     0
291
     1
 45
0.0
1001
ACAD
1000
AcDbSavedByObjectVersion
1070
     0
  0
VISUALSTYLE
  5
39
102
{ACAD_REACTORS
330
2A
102
}
102
{ACAD_XDICTIONARY
360
2D4
102
}
330
2A
100
AcDbVisualStyle
  2
Facepattern
 70
    15
 71
     2
 72
     2
 73
     0
 90
        0
 40
-0.6
 41
-30.0
 62
     5
 63
     7
 74
     1
 91
        4
 64
     7
 65
   257
 75
     1
175
     1
 42
1.0
 92
        8
 66
     7
 43
1.0
 76
     1
 77
     6
 78
     2
 67
     7
 79
     5
170
     0
171
     0
290
     0
174
     0
 93
        1
 44
0.0
173
     0
291
     1
 45
0.0
1001
ACAD
1000
AcDbSavedByObjectVersion
1070
     0
  0
VISUALSTYLE
  5
2B
102
{ACAD_REACTORS
330
2A
102
}
102
{ACAD_XDICTIONARY
360
2B8
102
}
330
2A
100
AcDbVisualStyle
  2
Flat
 70
     0
 71
     2
 72
     1
 73
     1
 90
        2
 40
-0.6
 41
30.0
 62
     5
 63
     7
 74
     0
 91
        4
 64
     7
 65
   257
 75
     1
175
     1
 42
1.0
 92
        8
 66
     7
 43
1.0
 76
     1
 77
     6
 78
     2
 67
     7
 79
     5
170
     0
171
     0
290
     0
174
     0
 93
       13
 44
0.0
173
     0
291
     1
 45
0.0
1001
ACAD
1000
AcDbSavedByObjectVersion
1070
     0
  0
VISUALSTYLE
  5
2C
102
{ACAD_REACTORS
330
2A
102
}
102
{ACAD_XDICTIONARY
360
2BA
102
}
330
2A
100
AcDbVisualStyle
  2
FlatWithEdges
 70
     1
 71
     2
 72
     1
 73
     1
 90
        2
 40
-0.6
 41
30.0
 62
     5
 63
     7
 74
     1
 91
        4
 64
     7
 65
   257
 75
     1
175
     1
 42
1.0
 92
        0
 66
   257
 43
1.0
 76
     1
 77
     6
 78
     2
 67
     7
 79
     5
170
     0
171
     0
290
     0
174
     0
 93
       13
 44
0.0
173
     0
291
     1
 45
0.0
1001
ACAD
1000
AcDbSavedByObjectVersion
1070
     0
  0
VISUALSTYLE
  5
2D
102
{ACAD_REACTORS
330
2A
102
}
102
{ACAD_XDICTIONARY
360
2BC
102
}
330
2A
100
AcDbVisualStyle
  2
Gouraud
 70
     2
 71
     2
 72
     2
 73
     1
 90
        2
 40
-0.6
 41
30.0
 62
     5
 63
     7
 74
     0
 91
        4
 64
     7
 65
   257
 75
     1
175
     1
 42
1.0
 92
        0
 66
     7
 43
1.0
 76
     1
 77
     6
 78
     2
 67
     7
 79
     5
170
     0
171
     0
290
     0
174
     0
 93
       13
 44
0.0
173
     0
291
     1
 45
0.0
1001
ACAD
1000
AcDbSavedByObjectVersion
1070
     0
  0
VISUALSTYLE
  5
2E
102
{ACAD_REACTORS
330
2A
102
}
102
{ACAD_XDICTIONARY
360
2BE
102
}
330
2A
100
AcDbVisualStyle
  2
GouraudWithEdges
 70
     3
 71
     2
 72
     2
 73
     1
 90
        2
 40
-0.6
 41
30.0
 62
     5
 63
     7
 74
     1
 91
        4
 64
     7
 65
   257
 75
     1
175
     1
 42
1.0
 92
        0
 66
   257
 43
1.0
 76
     1
 77
     6
 78
     2
 67
     7
 79
     5
170
     0
171
     0
290
     0
174
     0
 93
       13
 44
0.0
173
     0
291
     1
 45
0.0
1001
ACAD
1000
AcDbSavedByObjectVersion
1070
     0
  0
VISUALSTYLE
  5
38
102
{ACAD_REACTORS
330
2A
102
}
102
{ACAD_XDICTIONARY
360
2D2
102
}
330
2A
100
AcDbVisualStyle
  2
Linepattern
 70
    14
 71
     2
 72
     2
 73
     0
 90
        0
 40
-0.6
 41
-30.0
 62
     5
 63
     7
 74
     1
 91
        4
 64
     7
 65
   257
 75
     7
175
     7
 42
1.0
 92
        8
 66
     7
 43
1.0
 76
     1
 77
     6
 78
     2
 67
     7
 79
     5
170
     0
171
     0
290
     0
174
     0
 93
        1
 44
0.0
173
     0
291
     1
 45
0.0
1001
ACAD
1000
AcDbSavedByObjectVersion
1070
     0
  0
VISUALSTYLE
  5
33
102
{ACAD_REACTORS
330
2A
102
}
102
{ACAD_XDICTIONARY
360
2C8
102
}
330
2A
100
AcDbVisualStyle
  2
Realistic
 70
     8
 71
     2
 72
     2
 73
     0
 90
        0
 40
-0.6
 41
-30.0
 62
     5
 63
     7
 74
     1
 91
        0
 64
     7
 65
   257
 75
     1
175
     1
 42
1.0
 92
        8
 66
     8
 43
1.0
 76
     1
 77
     6
 78
     2
 67
     7
 79
     5
170
     0
171
     0
290
     0
174
     0
 93
       13
 44
0.0
173
     0
291
     0
 45
0.0
1001
ACAD
1000
AcDbSavedByObjectVersion
1070
     0
  0
VISUALSTYLE
  5
37
102
{ACAD_REACTORS
330
2A
102
}
102
{ACAD_XDICTIONARY
360
2D0
102
}
330
2A
100
AcDbVisualStyle
  2
Thicken
 70
    13
 71
     2
 72
     2
 73
     0
 90
        0
 40
-0.6
 41
-30.0
 62
     5
 63
     7
 74
     1
 91
        4
 64
     7
 65
   257
 75
     1
175
     1
 42
1.0
 92
       12
 66
     7
 43
1.0
 76
     1
 77
     6
 78
     2
 67
     7
 79
     5
170
     0
171
     0
290
     0
174
     0
 93
        1
 44
0.0
173
     0
291
     1
 45
0.0
1001
ACAD
1000
AcDbSavedByObjectVersion
1070
     0
  0
DICTIONARYVAR
  5
2B5
102
{ACAD_REACTORS
330
2B0
102
}
330
2B0
100
DictionaryVariables
280
     0
  1
1:1
  0
DICTIONARYVAR
  5
2B6
102
{ACAD_REACTORS
330
2B0
102
}
330
2B0
100
DictionaryVariables
280
     0
  1
2
  0
DICTIONARYVAR
  5
2B7
102
{ACAD_REACTORS
330
2B0
102
}
330
2B0
100
DictionaryVariables
280
     0
  1
1
  0
DICTIONARYVAR
  5
2B4
102
{ACAD_REACTORS
330
2B0
102
}
330
2B0
100
DictionaryVariables
280
     0
  1
80.000000
  0
DICTIONARYVAR
  5
2B3
102
{ACAD_REACTORS
330
2B0
102
}
330
2B0
100
DictionaryVariables
280
     0
  1
5.000000
  0
DICTIONARY
  5
2C0
330
2F
100
AcDbDictionary
280
     1
281
     1
  3
ACAD_XREC_ROUNDTRIP
360
2C1
  0
DICTIONARY
  5
2C4
330
31
100
AcDbDictionary
280
     1
281
     1
  3
ACAD_XREC_ROUNDTRIP
360
2C5
  0
DICTIONARY
  5
2C2
330
30
100
AcDbDictionary
280
     1
281
     1
  3
ACAD_XREC_ROUNDTRIP
360
2C3
  0
DICTIONARY
  5
2C6
330
32
100
AcDbDictionary
280
     1
281
     1
  3
ACAD_XREC_ROUNDTRIP
360
2C7
  0
DICTIONARY
  5
2CE
330
36
100
AcDbDictionary
280
     1
281
     1
  3
ACAD_XREC_ROUNDTRIP
360
2CF
  0
DICTIONARY
  5
2D6
330
3A
100
AcDbDictionary
280
     1
281
     1
  3
ACAD_XREC_ROUNDTRIP
360
2D7
  0
DICTIONARY
  5
2CA
330
34
100
AcDbDictionary
280
     1
281
     1
  3
ACAD_XREC_ROUNDTRIP
360
2CB
  0
DICTIONARY
  5
2CC
330
35
100
AcDbDictionary
280
     1
281
     1
  3
ACAD_XREC_ROUNDTRIP
360
2CD
  0
DICTIONARY
  5
2D4
330
39
100
AcDbDictionary
280
     1
281
     1
  3
ACAD_XREC_ROUNDTRIP
360
2D5
  0
DICTIONARY
  5
2B8
330
2B
100
AcDbDictionary
280
     1
281
     1
  3
ACAD_XREC_ROUNDTRIP
360
2B9
  0
DICTIONARY
  5
2BA
330
2C
100
AcDbDictionary
280
     1
281
     1
  3
ACAD_XREC_ROUNDTRIP
360
2BB
  0
DICTIONARY
  5
2BC
330
2D
100
AcDbDictionary
280
     1
281
     1
  3
ACAD_XREC_ROUNDTRIP
360
2BD
  0
DICTIONARY
  5
2BE
330
2E
100
AcDbDictionary
280
     1
281
     1
  3
ACAD_XREC_ROUNDTRIP
360
2BF
  0
DICTIONARY
  5
2D2
330
38
100
AcDbDictionary
280
     1
281
     1
  3
ACAD_XREC_ROUNDTRIP
360
2D3
  0
DICTIONARY
  5
2C8
330
33
100
AcDbDictionary
280
     1
281
     1
  3
ACAD_XREC_ROUNDTRIP
360
2C9
  0
DICTIONARY
  5
2D0
330
37
100
AcDbDictionary
280
     1
281
     1
  3
ACAD_XREC_ROUNDTRIP
360
2D1
  0
XRECORD
  5
2C1
102
{ACAD_REACTORS
330
2C0
102
}
330
2C0
100
AcDbXrecord
280
     1
102
RTVSPropertyOp0
 70
     1
102
RTVSPropertyOp1
 70
     1
102
RTVSPropertyOp2
 70
     1
102
RTVSPropertyOp3
 70
     1
102
RTVSPropertyOp4
 70
     1
102
RTVSPropertyOp5
 70
     1
102
RTVSPropertyOp6
 70
     1
102
RTVSPropertyOp7
 70
     1
102
RTVSPropertyOp8
 70
     1
102
RTVSPropertyOp9
 70
     1
102
RTVSPropertyOp10
 70
     1
102
RTVSPropertyOp11
 70
     1
102
RTVSPropertyOp12
 70
     1
102
RTVSPropertyOp13
 70
     1
102
RTVSPropertyOp14
 70
     1
102
RTVSPropertyOp15
 70
     1
102
RTVSPropertyOp16
 70
     1
102
RTVSPropertyOp17
 70
     1
102
RTVSPropertyOp18
 70
     1
102
RTVSPropertyOp19
 70
     1
102
RTVSPropertyOp20
 70
     1
102
RTVSPropertyOp21
 70
     1
102
RTVSPropertyOp22
 70
     1
102
RTVSPropertyOp23
 70
     1
102
RTVSPropertyOp24
 70
     1
102
RTVSPropertyOp25
 70
     1
102
RTVSPropertyOp26
 70
     1
102
RTVSPropertyOp27
 70
     1
  0
XRECORD
  5
2C5
102
{ACAD_REACTORS
330
2C4
102
}
330
2C4
100
AcDbXrecord
280
     1
102
RTVSPropertyOp0
 70
     1
102
RTVSPropertyOp1
 70
     1
102
RTVSPropertyOp2
 70
     1
102
RTVSPropertyOp3
 70
     1
102
RTVSPropertyOp4
 70
     1
102
RTVSPropertyOp5
 70
     1
102
RTVSPropertyOp6
 70
     1
102
RTVSPropertyOp7
 70
     1
102
RTVSPropertyOp8
 70
     1
102
RTVSPropertyOp9
 70
     1
102
RTVSPropertyOp10
 70
     1
102
RTVSPropertyOp11
 70
     1
102
RTVSPropertyOp12
 70
     1
102
RTVSPropertyOp13
 70
     1
102
RTVSPropertyOp14
 70
     1
102
RTVSPropertyOp15
 70
     1
102
RTVSPropertyOp16
 70
     1
102
RTVSPropertyOp17
 70
     1
102
RTVSPropertyOp18
 70
     1
102
RTVSPropertyOp19
 70
     1
102
RTVSPropertyOp20
 70
     1
102
RTVSPropertyOp21
 70
     1
102
RTVSPropertyOp22
 70
     1
102
RTVSPropertyOp23
 70
     1
102
RTVSPropertyOp24
 70
     1
102
RTVSPropertyOp25
 70
     1
102
RTVSPropertyOp26
 70
     1
102
RTVSPropertyOp27
 70
     1
  0
XRECORD
  5
2C3
102
{ACAD_REACTORS
330
2C2
102
}
330
2C2
100
AcDbXrecord
280
     1
102
RTVSPropertyOp0
 70
     1
102
RTVSPropertyOp1
 70
     1
102
RTVSPropertyOp2
 70
     1
102
RTVSPropertyOp3
 70
     1
102
RTVSPropertyOp4
 70
     1
102
RTVSPropertyOp5
 70
     1
102
RTVSPropertyOp6
 70
     1
102
RTVSPropertyOp7
 70
     1
102
RTVSPropertyOp8
 70
     1
102
RTVSPropertyOp9
 70
     1
102
RTVSPropertyOp10
 70
     1
102
RTVSPropertyOp11
 70
     1
102
RTVSPropertyOp12
 70
     1
102
RTVSPropertyOp13
 70
     1
102
RTVSPropertyOp14
 70
     1
102
RTVSPropertyOp15
 70
     1
102
RTVSPropertyOp16
 70
     1
102
RTVSPropertyOp17
 70
     1
102
RTVSPropertyOp18
 70
     1
102
RTVSPropertyOp19
 70
     1
102
RTVSPropertyOp20
 70
     1
102
RTVSPropertyOp21
 70
     1
102
RTVSPropertyOp22
 70
     1
102
RTVSPropertyOp23
 70
     1
102
RTVSPropertyOp24
 70
     1
102
RTVSPropertyOp25
 70
     1
102
RTVSPropertyOp26
 70
     1
102
RTVSPropertyOp27
 70
     1
  0
XRECORD
  5
2C7
102
{ACAD_REACTORS
330
2C6
102
}
330
2C6
100
AcDbXrecord
280
     1
102
RTVSPropertyOp0
 70
     1
102
RTVSPropertyOp1
 70
     1
102
RTVSPropertyOp2
 70
     1
102
RTVSPropertyOp3
 70
     1
102
RTVSPropertyOp4
 70
     1
102
RTVSPropertyOp5
 70
     1
102
RTVSPropertyOp6
 70
     1
102
RTVSPropertyOp7
 70
     1
102
RTVSPropertyOp8
 70
     1
102
RTVSPropertyOp9
 70
     1
102
RTVSPropertyOp10
 70
     1
102
RTVSPropertyOp11
 70
     1
102
RTVSPropertyOp12
 70
     1
102
RTVSPropertyOp13
 70
     1
102
RTVSPropertyOp14
 70
     1
102
RTVSPropertyOp15
 70
     1
102
RTVSPropertyOp16
 70
     1
102
RTVSPropertyOp17
 70
     1
102
RTVSPropertyOp18
 70
     1
102
RTVSPropertyOp19
 70
     1
102
RTVSPropertyOp20
 70
     1
102
RTVSPropertyOp21
 70
     1
102
RTVSPropertyOp22
 70
     1
102
RTVSPropertyOp23
 70
     1
102
RTVSPropertyOp24
 70
     1
102
RTVSPropertyOp25
 70
     1
102
RTVSPropertyOp26
 70
     1
102
RTVSPropertyOp27
 70
     1
  0
XRECORD
  5
2CF
102
{ACAD_REACTORS
330
2CE
102
}
330
2CE
100
AcDbXrecord
280
     1
102
RTVSPropertyOp0
 70
     1
102
RTVSPropertyOp1
 70
     1
102
RTVSPropertyOp2
 70
     1
102
RTVSPropertyOp3
 70
     1
102
RTVSPropertyOp4
 70
     1
102
RTVSPropertyOp5
 70
     1
102
RTVSPropertyOp6
 70
     1
102
RTVSPropertyOp7
 70
     1
102
RTVSPropertyOp8
 70
     1
102
RTVSPropertyOp9
 70
     1
102
RTVSPropertyOp10
 70
     1
102
RTVSPropertyOp11
 70
     1
102
RTVSPropertyOp12
 70
     1
102
RTVSPropertyOp13
 70
     1
102
RTVSPropertyOp14
 70
     1
102
RTVSPropertyOp15
 70
     1
102
RTVSPropertyOp16
 70
     1
102
RTVSPropertyOp17
 70
     1
102
RTVSPropertyOp18
 70
     1
102
RTVSPropertyOp19
 70
     1
102
RTVSPropertyOp20
 70
     1
102
RTVSPropertyOp21
 70
     1
102
RTVSPropertyOp22
 70
     1
102
RTVSPropertyOp23
 70
     1
102
RTVSPropertyOp24
 70
     1
102
RTVSPropertyOp25
 70
     1
102
RTVSPropertyOp26
 70
     1
102
RTVSPropertyOp27
 70
     1
  0
XRECORD
  5
2D7
102
{ACAD_REACTORS
330
2D6
102
}
330
2D6
100
AcDbXrecord
280
     1
102
RTVSPropertyOp0
 70
     1
102
RTVSPropertyOp1
 70
     1
102
RTVSPropertyOp2
 70
     1
102
RTVSPropertyOp3
 70
     1
102
RTVSPropertyOp4
 70
     1
102
RTVSPropertyOp5
 70
     1
102
RTVSPropertyOp6
 70
     1
102
RTVSPropertyOp7
 70
     1
102
RTVSPropertyOp8
 70
     1
102
RTVSPropertyOp9
 70
     1
102
RTVSPropertyOp10
 70
     1
102
RTVSPropertyOp11
 70
     1
102
RTVSPropertyOp12
 70
     1
102
RTVSPropertyOp13
 70
     1
102
RTVSPropertyOp14
 70
     1
102
RTVSPropertyOp15
 70
     1
102
RTVSPropertyOp16
 70
     1
102
RTVSPropertyOp17
 70
     1
102
RTVSPropertyOp18
 70
     1
102
RTVSPropertyOp19
 70
     1
102
RTVSPropertyOp20
 70
     1
102
RTVSPropertyOp21
 70
     1
102
RTVSPropertyOp22
 70
     1
102
RTVSPropertyOp23
 70
     1
102
RTVSPropertyOp24
 70
     1
102
RTVSPropertyOp25
 70
     1
102
RTVSPropertyOp26
 70
     1
102
RTVSPropertyOp27
 70
     1
  0
XRECORD
  5
2CB
102
{ACAD_REACTORS
330
2CA
102
}
330
2CA
100
AcDbXrecord
280
     1
102
RTVSPropertyOp0
 70
     1
102
RTVSPropertyOp1
 70
     1
102
RTVSPropertyOp2
 70
     1
102
RTVSPropertyOp3
 70
     1
102
RTVSPropertyOp4
 70
     1
102
RTVSPropertyOp5
 70
     1
102
RTVSPropertyOp6
 70
     1
102
RTVSPropertyOp7
 70
     1
102
RTVSPropertyOp8
 70
     1
102
RTVSPropertyOp9
 70
     1
102
RTVSPropertyOp10
 70
     1
102
RTVSPropertyOp11
 70
     1
102
RTVSPropertyOp12
 70
     1
102
RTVSPropertyOp13
 70
     1
102
RTVSPropertyOp14
 70
     1
102
RTVSPropertyOp15
 70
     1
102
RTVSPropertyOp16
 70
     1
102
RTVSPropertyOp17
 70
     1
102
RTVSPropertyOp18
 70
     1
102
RTVSPropertyOp19
 70
     1
102
RTVSPropertyOp20
 70
     1
102
RTVSPropertyOp21
 70
     1
102
RTVSPropertyOp22
 70
     1
102
RTVSPropertyOp23
 70
     1
102
RTVSPropertyOp24
 70
     1
102
RTVSPropertyOp25
 70
     1
102
RTVSPropertyOp26
 70
     1
102
RTVSPropertyOp27
 70
     1
  0
XRECORD
  5
2CD
102
{ACAD_REACTORS
330
2CC
102
}
330
2CC
100
AcDbXrecord
280
     1
102
RTVSPropertyOp0
 70
     1
102
RTVSPropertyOp1
 70
     1
102
RTVSPropertyOp2
 70
     1
102
RTVSPropertyOp3
 70
     1
102
RTVSPropertyOp4
 70
     1
102
RTVSPropertyOp5
 70
     1
102
RTVSPropertyOp6
 70
     1
102
RTVSPropertyOp7
 70
     1
102
RTVSPropertyOp8
 70
     1
102
RTVSPropertyOp9
 70
     1
102
RTVSPropertyOp10
 70
     1
102
RTVSPropertyOp11
 70
     1
102
RTVSPropertyOp12
 70
     1
102
RTVSPropertyOp13
 70
     1
102
RTVSPropertyOp14
 70
     1
102
RTVSPropertyOp15
 70
     1
102
RTVSPropertyOp16
 70
     1
102
RTVSPropertyOp17
 70
     1
102
RTVSPropertyOp18
 70
     1
102
RTVSPropertyOp19
 70
     1
102
RTVSPropertyOp20
 70
     1
102
RTVSPropertyOp21
 70
     1
102
RTVSPropertyOp22
 70
     1
102
RTVSPropertyOp23
 70
     1
102
RTVSPropertyOp24
 70
     1
102
RTVSPropertyOp25
 70
     1
102
RTVSPropertyOp26
 70
     1
102
RTVSPropertyOp27
 70
     1
  0
XRECORD
  5
2D5
102
{ACAD_REACTORS
330
2D4
102
}
330
2D4
100
AcDbXrecord
280
     1
102
RTVSPropertyOp0
 70
     1
102
RTVSPropertyOp1
 70
     1
102
RTVSPropertyOp2
 70
     1
102
RTVSPropertyOp3
 70
     1
102
RTVSPropertyOp4
 70
     1
102
RTVSPropertyOp5
 70
     1
102
RTVSPropertyOp6
 70
     1
102
RTVSPropertyOp7
 70
     1
102
RTVSPropertyOp8
 70
     1
102
RTVSPropertyOp9
 70
     1
102
RTVSPropertyOp10
 70
     1
102
RTVSPropertyOp11
 70
     1
102
RTVSPropertyOp12
 70
     1
102
RTVSPropertyOp13
 70
     1
102
RTVSPropertyOp14
 70
     1
102
RTVSPropertyOp15
 70
     1
102
RTVSPropertyOp16
 70
     1
102
RTVSPropertyOp17
 70
     1
102
RTVSPropertyOp18
 70
     1
102
RTVSPropertyOp19
 70
     1
102
RTVSPropertyOp20
 70
     1
102
RTVSPropertyOp21
 70
     1
102
RTVSPropertyOp22
 70
     1
102
RTVSPropertyOp23
 70
     1
102
RTVSPropertyOp24
 70
     1
102
RTVSPropertyOp25
 70
     1
102
RTVSPropertyOp26
 70
     1
102
RTVSPropertyOp27
 70
     1
  0
XRECORD
  5
2B9
102
{ACAD_REACTORS
330
2B8
102
}
330
2B8
100
AcDbXrecord
280
     1
102
RTVSPropertyOp0
 70
     1
102
RTVSPropertyOp1
 70
     1
102
RTVSPropertyOp2
 70
     1
102
RTVSPropertyOp3
 70
     1
102
RTVSPropertyOp4
 70
     1
102
RTVSPropertyOp5
 70
     1
102
RTVSPropertyOp6
 70
     1
102
RTVSPropertyOp7
 70
     1
102
RTVSPropertyOp8
 70
     1
102
RTVSPropertyOp9
 70
     1
102
RTVSPropertyOp10
 70
     1
102
RTVSPropertyOp11
 70
     1
102
RTVSPropertyOp12
 70
     1
102
RTVSPropertyOp13
 70
     1
102
RTVSPropertyOp14
 70
     1
102
RTVSPropertyOp15
 70
     1
102
RTVSPropertyOp16
 70
     1
102
RTVSPropertyOp17
 70
     1
102
RTVSPropertyOp18
 70
     1
102
RTVSPropertyOp19
 70
     1
102
RTVSPropertyOp20
 70
     1
102
RTVSPropertyOp21
 70
     1
102
RTVSPropertyOp22
 70
     1
102
RTVSPropertyOp23
 70
     1
102
RTVSPropertyOp24
 70
     1
102
RTVSPropertyOp25
 70
     1
102
RTVSPropertyOp26
 70
     1
102
RTVSPropertyOp27
 70
     1
  0
XRECORD
  5
2BB
102
{ACAD_REACTORS
330
2BA
102
}
330
2BA
100
AcDbXrecord
280
     1
102
RTVSPropertyOp0
 70
     1
102
RTVSPropertyOp1
 70
     1
102
RTVSPropertyOp2
 70
     1
102
RTVSPropertyOp3
 70
     1
102
RTVSPropertyOp4
 70
     1
102
RTVSPropertyOp5
 70
     1
102
RTVSPropertyOp6
 70
     1
102
RTVSPropertyOp7
 70
     1
102
RTVSPropertyOp8
 70
     1
102
RTVSPropertyOp9
 70
     1
102
RTVSPropertyOp10
 70
     1
102
RTVSPropertyOp11
 70
     1
102
RTVSPropertyOp12
 70
     1
102
RTVSPropertyOp13
 70
     1
102
RTVSPropertyOp14
 70
     1
102
RTVSPropertyOp15
 70
     1
102
RTVSPropertyOp16
 70
     1
102
RTVSPropertyOp17
 70
     1
102
RTVSPropertyOp18
 70
     1
102
RTVSPropertyOp19
 70
     1
102
RTVSPropertyOp20
 70
     1
102
RTVSPropertyOp21
 70
     1
102
RTVSPropertyOp22
 70
     1
102
RTVSPropertyOp23
 70
     1
102
RTVSPropertyOp24
 70
     1
102
RTVSPropertyOp25
 70
     1
102
RTVSPropertyOp26
 70
     1
102
RTVSPropertyOp27
 70
     1
  0
XRECORD
  5
2BD
102
{ACAD_REACTORS
330
2BC
102
}
330
2BC
100
AcDbXrecord
280
     1
102
RTVSPropertyOp0
 70
     1
102
RTVSPropertyOp1
 70
     1
102
RTVSPropertyOp2
 70
     1
102
RTVSPropertyOp3
 70
     1
102
RTVSPropertyOp4
 70
     1
102
RTVSPropertyOp5
 70
     1
102
RTVSPropertyOp6
 70
     1
102
RTVSPropertyOp7
 70
     1
102
RTVSPropertyOp8
 70
     1
102
RTVSPropertyOp9
 70
     1
102
RTVSPropertyOp10
 70
     1
102
RTVSPropertyOp11
 70
     1
102
RTVSPropertyOp12
 70
     1
102
RTVSPropertyOp13
 70
     1
102
RTVSPropertyOp14
 70
     1
102
RTVSPropertyOp15
 70
     1
102
RTVSPropertyOp16
 70
     1
102
RTVSPropertyOp17
 70
     1
102
RTVSPropertyOp18
 70
     1
102
RTVSPropertyOp19
 70
     1
102
RTVSPropertyOp20
 70
     1
102
RTVSPropertyOp21
 70
     1
102
RTVSPropertyOp22
 70
     1
102
RTVSPropertyOp23
 70
     1
102
RTVSPropertyOp24
 70
     1
102
RTVSPropertyOp25
 70
     1
102
RTVSPropertyOp26
 70
     1
102
RTVSPropertyOp27
 70
     1
  0
XRECORD
  5
2BF
102
{ACAD_REACTORS
330
2BE
102
}
330
2BE
100
AcDbXrecord
280
     1
102
RTVSPropertyOp0
 70
     1
102
RTVSPropertyOp1
 70
     1
102
RTVSPropertyOp2
 70
     1
102
RTVSPropertyOp3
 70
     1
102
RTVSPropertyOp4
 70
     1
102
RTVSPropertyOp5
 70
     1
102
RTVSPropertyOp6
 70
     1
102
RTVSPropertyOp7
 70
     1
102
RTVSPropertyOp8
 70
     1
102
RTVSPropertyOp9
 70
     1
102
RTVSPropertyOp10
 70
     1
102
RTVSPropertyOp11
 70
     1
102
RTVSPropertyOp12
 70
     1
102
RTVSPropertyOp13
 70
     1
102
RTVSPropertyOp14
 70
     1
102
RTVSPropertyOp15
 70
     1
102
RTVSPropertyOp16
 70
     1
102
RTVSPropertyOp17
 70
     1
102
RTVSPropertyOp18
 70
     1
102
RTVSPropertyOp19
 70
     1
102
RTVSPropertyOp20
 70
     1
102
RTVSPropertyOp21
 70
     1
102
RTVSPropertyOp22
 70
     1
102
RTVSPropertyOp23
 70
     1
102
RTVSPropertyOp24
 70
     1
102
RTVSPropertyOp25
 70
     1
102
RTVSPropertyOp26
 70
     1
102
RTVSPropertyOp27
 70
     1
  0
XRECORD
  5
2D3
102
{ACAD_REACTORS
330
2D2
102
}
330
2D2
100
AcDbXrecord
280
     1
102
RTVSPropertyOp0
 70
     1
102
RTVSPropertyOp1
 70
     1
102
RTVSPropertyOp2
 70
     1
102
RTVSPropertyOp3
 70
     1
102
RTVSPropertyOp4
 70
     1
102
RTVSPropertyOp5
 70
     1
102
RTVSPropertyOp6
 70
     1
102
RTVSPropertyOp7
 70
     1
102
RTVSPropertyOp8
 70
     1
102
RTVSPropertyOp9
 70
     1
102
RTVSPropertyOp10
 70
     1
102
RTVSPropertyOp11
 70
     1
102
RTVSPropertyOp12
 70
     1
102
RTVSPropertyOp13
 70
     1
102
RTVSPropertyOp14
 70
     1
102
RTVSPropertyOp15
 70
     1
102
RTVSPropertyOp16
 70
     1
102
RTVSPropertyOp17
 70
     1
102
RTVSPropertyOp18
 70
     1
102
RTVSPropertyOp19
 70
     1
102
RTVSPropertyOp20
 70
     1
102
RTVSPropertyOp21
 70
     1
102
RTVSPropertyOp22
 70
     1
102
RTVSPropertyOp23
 70
     1
102
RTVSPropertyOp24
 70
     1
102
RTVSPropertyOp25
 70
     1
102
RTVSPropertyOp26
 70
     1
102
RTVSPropertyOp27
 70
     1
  0
XRECORD
  5
2C9
102
{ACAD_REACTORS
330
2C8
102
}
330
2C8
100
AcDbXrecord
280
     1
102
RTVSPropertyOp0
 70
     1
102
RTVSPropertyOp1
 70
     1
102
RTVSPropertyOp2
 70
     1
102
RTVSPropertyOp3
 70
     1
102
RTVSPropertyOp4
 70
     1
102
RTVSPropertyOp5
 70
     1
102
RTVSPropertyOp6
 70
     1
102
RTVSPropertyOp7
 70
     1
102
RTVSPropertyOp8
 70
     1
102
RTVSPropertyOp9
 70
     1
102
RTVSPropertyOp10
 70
     1
102
RTVSPropertyOp11
 70
     1
102
RTVSPropertyOp12
 70
     1
102
RTVSPropertyOp13
 70
     1
102
RTVSPropertyOp14
 70
     1
102
RTVSPropertyOp15
 70
     1
102
RTVSPropertyOp16
 70
     1
102
RTVSPropertyOp17
 70
     1
102
RTVSPropertyOp18
 70
     1
102
RTVSPropertyOp19
 70
     1
102
RTVSPropertyOp20
 70
     1
102
RTVSPropertyOp21
 70
     1
102
RTVSPropertyOp22
 70
     1
102
RTVSPropertyOp23
 70
     1
102
RTVSPropertyOp24
 70
     1
102
RTVSPropertyOp25
 70
     1
102
RTVSPropertyOp26
 70
     1
102
RTVSPropertyOp27
 70
     1
  0
XRECORD
  5
2D1
102
{ACAD_REACTORS
330
2D0
102
}
330
2D0
100
AcDbXrecord
280
     1
102
RTVSPropertyOp0
 70
     1
102
RTVSPropertyOp1
 70
     1
102
RTVSPropertyOp2
 70
     1
102
RTVSPropertyOp3
 70
     1
102
RTVSPropertyOp4
 70
     1
102
RTVSPropertyOp5
 70
     1
102
RTVSPropertyOp6
 70
     1
102
RTVSPropertyOp7
 70
     1
102
RTVSPropertyOp8
 70
     1
102
RTVSPropertyOp9
 70
     1
102
RTVSPropertyOp10
 70
     1
102
RTVSPropertyOp11
 70
     1
102
RTVSPropertyOp12
 70
     1
102
RTVSPropertyOp13
 70
     1
102
RTVSPropertyOp14
 70
     1
102
RTVSPropertyOp15
 70
     1
102
RTVSPropertyOp16
 70
     1
102
RTVSPropertyOp17
 70
     1
102
RTVSPropertyOp18
 70
     1
102
RTVSPropertyOp19
 70
     1
102
RTVSPropertyOp20
 70
     1
102
RTVSPropertyOp21
 70
     1
102
RTVSPropertyOp22
 70
     1
102
RTVSPropertyOp23
 70
     1
102
RTVSPropertyOp24
 70
     1
102
RTVSPropertyOp25
 70
     1
102
RTVSPropertyOp26
 70
     1
102
RTVSPropertyOp27
 70
     1
  0
ENDSEC
  0
EOF
